  0
SECTION
  2
HEADER
  9
$ACADVER
  1
AC1015
  9
$ACADMAINTVER
 70
    20
  9
$DWGCODEPAGE
  3
ANSI_1252
  9
$INSBASE
 10
0.0
 20
0.0
 30
0.0
  9
$EXTMIN
 10
39.31091362064581
 20
73.61100846763122
 30
-0.0015258207003583
  9
$EXTMAX
 10
168.2698063485671
 20
266.0111395714468
 30
0.0000000349246037
  9
$LIMMIN
 10
0.0
 20
0.0
  9
$LIMMAX
 10
210.0
 20
297.0
  9
$ORTHOMODE
 70
     0
  9
$REGENMODE
 70
     1
  9
$FILLMODE
 70
     1
  9
$QTEXTMODE
 70
     0
  9
$MIRRTEXT
 70
     0
  9
$LTSCALE
 40
1.0
  9
$ATTMODE
 70
     1
  9
$TEXTSIZE
 40
0.2
  9
$TRACEWID
 40
0.05
  9
$TEXTSTYLE
  7
Standard
  9
$CLAYER
  8
0
  9
$CELTYPE
  6
ByLayer
  9
$CECOLOR
 62
   256
  9
$CELTSCALE
 40
1.0
  9
$DISPSILH
 70
     0
  9
$DIMSCALE
 40
1.0
  9
$DIMASZ
 40
1.799999999999999
  9
$DIMEXO
 40
0.0625
  9
$DIMDLI
 40
0.38
  9
$DIMRND
 40
0.0
  9
$DIMDLE
 40
0.0
  9
$DIMEXE
 40
0.18
  9
$DIMTP
 40
0.0
  9
$DIMTM
 40
0.0
  9
$DIMTXT
 40
0.25
  9
$DIMCEN
 40
0.09
  9
$DIMTSZ
 40
0.0
  9
$DIMTOL
 70
     0
  9
$DIMLIM
 70
     0
  9
$DIMTIH
 70
     1
  9
$DIMTOH
 70
     1
  9
$DIMSE1
 70
     0
  9
$DIMSE2
 70
     0
  9
$DIMTAD
 70
     0
  9
$DIMZIN
 70
     0
  9
$DIMBLK
  1

  9
$DIMASO
 70
     1
  9
$DIMSHO
 70
     1
  9
$DIMPOST
  1

  9
$DIMAPOST
  1

  9
$DIMALT
 70
     0
  9
$DIMALTD
 70
     2
  9
$DIMALTF
 40
25.4
  9
$DIMLFAC
 40
1.0
  9
$DIMTOFL
 70
     0
  9
$DIMTVP
 40
0.0
  9
$DIMTIX
 70
     0
  9
$DIMSOXD
 70
     0
  9
$DIMSAH
 70
     0
  9
$DIMBLK1
  1

  9
$DIMBLK2
  1

  9
$DIMSTYLE
  2
Standard
  9
$DIMCLRD
 70
     0
  9
$DIMCLRE
 70
     0
  9
$DIMCLRT
 70
     0
  9
$DIMTFAC
 40
1.0
  9
$DIMGAP
 40
0.09
  9
$DIMJUST
 70
     0
  9
$DIMSD1
 70
     0
  9
$DIMSD2
 70
     0
  9
$DIMTOLJ
 70
     1
  9
$DIMTZIN
 70
     0
  9
$DIMALTZ
 70
     0
  9
$DIMALTTZ
 70
     0
  9
$DIMUPT
 70
     0
  9
$DIMDEC
 70
     4
  9
$DIMTDEC
 70
     4
  9
$DIMALTU
 70
     2
  9
$DIMALTTD
 70
     2
  9
$DIMTXSTY
  7
Standard
  9
$DIMAUNIT
 70
     0
  9
$DIMADEC
 70
     0
  9
$DIMALTRND
 40
0.0
  9
$DIMAZIN
 70
     0
  9
$DIMDSEP
 70
    46
  9
$DIMATFIT
 70
     3
  9
$DIMFRAC
 70
     0
  9
$DIMLDRBLK
  1

  9
$DIMLUNIT
 70
     2
  9
$DIMLWD
 70
    -2
  9
$DIMLWE
 70
    -2
  9
$DIMTMOVE
 70
     0
  9
$LUNITS
 70
     2
  9
$LUPREC
 70
     4
  9
$SKETCHINC
 40
0.1
  9
$FILLETRAD
 40
0.0
  9
$AUNITS
 70
     0
  9
$AUPREC
 70
     0
  9
$MENU
  1
.
  9
$ELEVATION
 40
0.0
  9
$PELEVATION
 40
0.0
  9
$THICKNESS
 40
0.0
  9
$LIMCHECK
 70
     0
  9
$CHAMFERA
 40
0.0
  9
$CHAMFERB
 40
0.0
  9
$CHAMFERC
 40
0.0
  9
$CHAMFERD
 40
0.0
  9
$SKPOLY
 70
     0
  9
$TDCREATE
 40
2455629.542110393
  9
$TDUCREATE
 40
2455629.500443727
  9
$TDUPDATE
 40
2455629.542485290
  9
$TDUUPDATE
 40
2455629.500818623
  9
$TDINDWG
 40
0.0003228241
  9
$TDUSRTIMER
 40
0.0003228241
  9
$USRTIMER
 70
     1
  9
$ANGBASE
 50
0.0
  9
$ANGDIR
 70
     0
  9
$PDMODE
 70
     0
  9
$PDSIZE
 40
0.0
  9
$PLINEWID
 40
0.0
  9
$SPLFRAME
 70
     0
  9
$SPLINETYPE
 70
     6
  9
$SPLINESEGS
 70
     8
  9
$HANDSEED
  5
555
  9
$SURFTAB1
 70
     6
  9
$SURFTAB2
 70
     6
  9
$SURFTYPE
 70
     6
  9
$SURFU
 70
     6
  9
$SURFV
 70
     6
  9
$UCSBASE
  2

  9
$UCSNAME
  2

  9
$UCSORG
 10
0.0
 20
0.0
 30
0.0
  9
$UCSXDIR
 10
1.0
 20
0.0
 30
0.0
  9
$UCSYDIR
 10
0.0
 20
1.0
 30
0.0
  9
$UCSORTHOREF
  2

  9
$UCSORTHOVIEW
 70
     0
  9
$UCSORGTOP
 10
0.0
 20
0.0
 30
0.0
  9
$UCSORGBOTTOM
 10
0.0
 20
0.0
 30
0.0
  9
$UCSORGLEFT
 10
0.0
 20
0.0
 30
0.0
  9
$UCSORGRIGHT
 10
0.0
 20
0.0
 30
0.0
  9
$UCSORGFRONT
 10
0.0
 20
0.0
 30
0.0
  9
$UCSORGBACK
 10
0.0
 20
0.0
 30
0.0
  9
$PUCSBASE
  2

  9
$PUCSNAME
  2

  9
$PUCSORG
 10
0.0
 20
0.0
 30
0.0
  9
$PUCSXDIR
 10
1.0
 20
0.0
 30
0.0
  9
$PUCSYDIR
 10
0.0
 20
1.0
 30
0.0
  9
$PUCSORTHOREF
  2

  9
$PUCSORTHOVIEW
 70
     0
  9
$PUCSORGTOP
 10
0.0
 20
0.0
 30
0.0
  9
$PUCSORGBOTTOM
 10
0.0
 20
0.0
 30
0.0
  9
$PUCSORGLEFT
 10
0.0
 20
0.0
 30
0.0
  9
$PUCSORGRIGHT
 10
0.0
 20
0.0
 30
0.0
  9
$PUCSORGFRONT
 10
0.0
 20
0.0
 30
0.0
  9
$PUCSORGBACK
 10
0.0
 20
0.0
 30
0.0
  9
$USERI1
 70
     0
  9
$USERI2
 70
     0
  9
$USERI3
 70
     0
  9
$USERI4
 70
     0
  9
$USERI5
 70
     0
  9
$USERR1
 40
0.0
  9
$USERR2
 40
0.0
  9
$USERR3
 40
0.0
  9
$USERR4
 40
0.0
  9
$USERR5
 40
0.0
  9
$WORLDVIEW
 70
     1
  9
$SHADEDGE
 70
     3
  9
$SHADEDIF
 70
    70
  9
$TILEMODE
 70
     1
  9
$MAXACTVP
 70
    64
  9
$PINSBASE
 10
0.0
 20
0.0
 30
0.0
  9
$PLIMCHECK
 70
     0
  9
$PEXTMIN
 10
0.0
 20
0.0
 30
0.0
  9
$PEXTMAX
 10
210.0
 20
297.0
 30
0.0
  9
$PLIMMIN
 10
0.0
 20
0.0
  9
$PLIMMAX
 10
210.0
 20
297.0
  9
$UNITMODE
 70
     0
  9
$VISRETAIN
 70
     1
  9
$PLINEGEN
 70
     0
  9
$PSLTSCALE
 70
     1
  9
$TREEDEPTH
 70
  3020
  9
$CMLSTYLE
  2
Standard
  9
$CMLJUST
 70
     0
  9
$CMLSCALE
 40
1.0
  9
$PROXYGRAPHICS
 70
     1
  9
$MEASUREMENT
 70
     1
  9
$CELWEIGHT
370
    -1
  9
$ENDCAPS
280
     0
  9
$JOINSTYLE
280
     0
  9
$LWDISPLAY
290
     0
  9
$INSUNITS
 70
     4
  9
$HYPERLINKBASE
  1

  9
$STYLESHEET
  1

  9
$XEDIT
290
     1
  9
$CEPSNTYPE
380
     0
  9
$PSTYLEMODE
290
     1
  9
$FINGERPRINTGUID
  2
{177716AD-3733-4312-B878-E8EA52F88920}
  9
$VERSIONGUID
  2
{6B0BAD52-2AE4-46CC-BE44-7A5A6B69CB08}
  9
$EXTNAMES
290
     1
  9
$PSVPSCALE
 40
0.0
  9
$OLESTARTUP
290
     0
  0
ENDSEC
  0
SECTION
  2
CLASSES
  0
CLASS
  1
ACDBDICTIONARYWDFLT
  2
AcDbDictionaryWithDefault
  3
ObjectDBX Classes
 90
        0
280
     0
281
     0
  0
CLASS
  1
MATERIAL
  2
AcDbMaterial
  3
ObjectDBX Classes
 90
     1153
280
     0
281
     0
  0
CLASS
  1
VISUALSTYLE
  2
AcDbVisualStyle
  3
ObjectDBX Classes
 90
     4095
280
     0
281
     0
  0
CLASS
  1
SCALE
  2
AcDbScale
  3
ObjectDBX Classes
 90
     1153
280
     0
281
     0
  0
CLASS
  1
TABLESTYLE
  2
AcDbTableStyle
  3
ObjectDBX Classes
 90
     4095
280
     0
281
     0
  0
CLASS
  1
MLEADERSTYLE
  2
AcDbMLeaderStyle
  3
ACDB_MLEADERSTYLE_CLASS
 90
     4095
280
     0
281
     0
  0
CLASS
  1
DICTIONARYVAR
  2
AcDbDictionaryVar
  3
ObjectDBX Classes
 90
        0
280
     0
281
     0
  0
CLASS
  1
CELLSTYLEMAP
  2
AcDbCellStyleMap
  3
ObjectDBX Classes
 90
     1152
280
     0
281
     0
  0
CLASS
  1
ACDBPLACEHOLDER
  2
AcDbPlaceHolder
  3
ObjectDBX Classes
 90
        0
280
     0
281
     0
  0
CLASS
  1
LAYOUT
  2
AcDbLayout
  3
ObjectDBX Classes
 90
        0
280
     0
281
     0
  0
ENDSEC
  0
SECTION
  2
TABLES
  0
TABLE
  2
VPORT
  5
8
330
0
100
AcDbSymbolTable
 70
     1
  0
VPORT
  5
57
330
8
100
AcDbSymbolTableRecord
100
AcDbViewportTableRecord
  2
*Active
 70
     0
 10
0.0
 20
0.0
 11
1.0
 21
1.0
 12
103.7903599846065
 22
169.811074019539
 13
0.0
 23
0.0
 14
1.0
 24
1.0
 15
0.0
 25
0.0
 16
0.0
 26
0.0
 36
1.0
 17
0.0
 27
0.0
 37
0.0
 40
193.7239852169152
 41
2.169919632606199
 42
50.0
 43
0.0
 44
0.0
 50
0.0
 51
0.0
 71
     0
 72
   100
 73
     1
 74
     1
 75
     0
 76
     0
 77
     0
 78
     0
281
     0
 65
     1
110
0.0
120
0.0
130
0.0
111
1.0
121
0.0
131
0.0
112
0.0
122
1.0
132
0.0
 79
     0
146
0.0
  0
ENDTAB
  0
TABLE
  2
LTYPE
  5
5
330
0
100
AcDbSymbolTable
 70
     1
  0
LTYPE
  5
5B
330
5
100
AcDbSymbolTableRecord
100
AcDbLinetypeTableRecord
  2
ByBlock
 70
     0
  3

 72
    65
 73
     0
 40
0.0
  0
LTYPE
  5
5C
330
5
100
AcDbSymbolTableRecord
100
AcDbLinetypeTableRecord
  2
ByLayer
 70
     0
  3

 72
    65
 73
     0
 40
0.0
  0
LTYPE
  5
5D
330
5
100
AcDbSymbolTableRecord
100
AcDbLinetypeTableRecord
  2
Continuous
 70
     0
  3
Solid line
 72
    65
 73
     0
 40
0.0
  0
ENDTAB
  0
TABLE
  2
LAYER
  5
2
330
0
100
AcDbSymbolTable
 70
     7
  0
LAYER
  5
54
330
2
100
AcDbSymbolTableRecord
100
AcDbLayerTableRecord
  2
0
 70
     0
 62
     7
  6
Continuous
370
    -3
390
F
  0
LAYER
  5
78
330
2
100
AcDbSymbolTableRecord
100
AcDbLayerTableRecord
  2
Border (ISO)
 70
     0
 62
     7
  6
Continuous
370
    70
390
F
  0
LAYER
  5
7B
330
2
100
AcDbSymbolTableRecord
100
AcDbLayerTableRecord
  2
Centerline (ISO)
 70
     0
 62
     7
  6
Continuous
370
    25
390
F
  0
LAYER
  5
80
330
2
100
AcDbSymbolTableRecord
100
AcDbLayerTableRecord
  2
Hatch (ISO)
 70
     0
 62
     7
  6
Continuous
370
    18
390
F
  0
LAYER
  5
8A
330
2
100
AcDbSymbolTableRecord
100
AcDbLayerTableRecord
  2
Symbol (ISO)
 70
     0
 62
     7
  6
Continuous
370
    25
390
F
  0
LAYER
  5
8B
330
2
100
AcDbSymbolTableRecord
100
AcDbLayerTableRecord
  2
Title (ISO)
 70
     0
 62
     7
  6
Continuous
370
    50
390
F
  0
LAYER
  5
8D
330
2
100
AcDbSymbolTableRecord
100
AcDbLayerTableRecord
  2
Visible (ISO)
 70
     0
 62
     7
  6
Continuous
370
    35
390
F
  0
ENDTAB
  0
TABLE
  2
STYLE
  5
3
330
0
100
AcDbSymbolTable
 70
    13
  0
STYLE
  5
55
330
3
100
AcDbSymbolTableRecord
100
AcDbTextStyleTableRecord
  2
Standard
 70
     0
 40
0.0
 41
1.0
 50
0.0
 71
     0
 42
0.2
  3
TAHOMA.TTF
  4

1001
ACAD
1000
Tahoma
1071
      256
  0
STYLE
  5
5A
330
3
100
AcDbSymbolTableRecord
100
AcDbTextStyleTableRecord
  2
Annotative
 70
     0
 40
0.0
 41
1.0
 50
0.0
 71
     0
 42
0.2
  3
txt
  4

1001
AcadAnnotative
1000
AnnotativeData
1002
{
1070
     1
1070
     1
1002
}
  0
STYLE
  5
92
330
3
100
AcDbSymbolTableRecord
100
AcDbTextStyleTableRecord
  2
Label Text (ISO)
 70
     0
 40
0.0
 41
1.0
 50
0.0
 71
     0
 42
0.2
  3
TAHOMA.TTF
  4

1001
ACAD
1000
Tahoma
1071
      256
  0
STYLE
  5
93
330
3
100
AcDbSymbolTableRecord
100
AcDbTextStyleTableRecord
  2
Note Text (ISO)
 70
     0
 40
0.0
 41
1.0
 50
0.0
 71
     0
 42
0.2
  3
TAHOMA.TTF
  4

1001
ACAD
1000
Tahoma
1071
      256
  0
STYLE
  5
94
330
3
100
AcDbSymbolTableRecord
100
AcDbTextStyleTableRecord
  2
ROMANS_49
 70
     0
 40
0.0
 41
1.0
 50
0.0
 71
     0
 42
0.2
  3
romans.shx
  4

  0
STYLE
  5
95
330
3
100
AcDbSymbolTableRecord
100
AcDbTextStyleTableRecord
  2
ROMANS_53
 70
     0
 40
0.0
 41
1.0
 50
0.0
 71
     0
 42
0.2
  3
romans.shx
  4

  0
STYLE
  5
96
330
3
100
AcDbSymbolTableRecord
100
AcDbTextStyleTableRecord
  2
ROMANS_54
 70
     0
 40
0.0
 41
1.0
 50
0.0
 71
     0
 42
0.2
  3
romans.shx
  4

  0
STYLE
  5
97
330
3
100
AcDbSymbolTableRecord
100
AcDbTextStyleTableRecord
  2
Tekststijl standaard (ISO)
 70
     0
 40
0.0
 41
1.0
 50
0.0
 71
     0
 42
0.2
  3
isocpeur.ttf
  4

1001
ACAD
1000
ISOCPEUR
1071
      256
  0
STYLE
  5
1BB
330
3
100
AcDbSymbolTableRecord
100
AcDbTextStyleTableRecord
  2
Text Style44
 70
     0
 40
0.0
 41
1.0
 50
0.0
 71
     0
 42
0.2
  3
isocpeur.ttf
  4

1001
ACAD
1000
ISOCPEUR
1071
      256
  0
STYLE
  5
1C6
330
3
100
AcDbSymbolTableRecord
100
AcDbTextStyleTableRecord
  2
Text Style61
 70
     0
 40
0.0
 41
1.0
 50
0.0
 71
     0
 42
0.2
  3
isocpeur.ttf
  4

1001
ACAD
1000
ISOCPEUR
1071
      256
  0
STYLE
  5
1D6
330
3
100
AcDbSymbolTableRecord
100
AcDbTextStyleTableRecord
  2
Text Style72
 70
     0
 40
0.0
 41
1.0
 50
0.0
 71
     0
 42
0.2
  3
isocpeur.ttf
  4

1001
ACAD
1000
ISOCPEUR
1071
      256
  0
STYLE
  5
1E6
330
3
100
AcDbSymbolTableRecord
100
AcDbTextStyleTableRecord
  2
Text Style73
 70
     0
 40
0.0
 41
1.0
 50
0.0
 71
     0
 42
0.2
  3
isocpeur.ttf
  4

1001
ACAD
1000
ISOCPEUR
1071
      256
  0
STYLE
  5
1EB
330
3
100
AcDbSymbolTableRecord
100
AcDbTextStyleTableRecord
  2
Text Style81
 70
     0
 40
0.0
 41
1.0
 50
0.0
 71
     0
 42
0.2
  3
isocpeur.ttf
  4

1001
ACAD
1000
ISOCPEUR
1071
      256
  0
ENDTAB
  0
TABLE
  2
VIEW
  5
6
330
0
100
AcDbSymbolTable
 70
     0
  0
ENDTAB
  0
TABLE
  2
UCS
  5
7
330
0
100
AcDbSymbolTable
 70
     0
  0
ENDTAB
  0
TABLE
  2
APPID
  5
9
330
0
100
AcDbSymbolTable
 70
     4
  0
APPID
  5
56
330
9
100
AcDbSymbolTableRecord
100
AcDbRegAppTableRecord
  2
ACAD
 70
     0
  0
APPID
  5
5E
330
9
100
AcDbSymbolTableRecord
100
AcDbRegAppTableRecord
  2
AcadAnnotative
 70
     0
  0
APPID
  5
1D8
330
9
100
AcDbSymbolTableRecord
100
AcDbRegAppTableRecord
  2
AcadAnnoPO
 70
     0
  0
APPID
  5
548
330
9
100
AcDbSymbolTableRecord
100
AcDbRegAppTableRecord
  2
ACAD_MLEADERVER
 70
     0
  0
ENDTAB
  0
TABLE
  2
DIMSTYLE
  5
A
330
0
100
AcDbSymbolTable
 70
    16
100
AcDbDimStyleTable
 71
     0
  0
DIMSTYLE
105
58
330
A
100
AcDbSymbolTableRecord
100
AcDbDimStyleTableRecord
  2
Standard
 70
     0
340
55
  0
DIMSTYLE
105
59
330
A
100
AcDbSymbolTableRecord
100
AcDbDimStyleTableRecord
  2
Annotative
 70
     0
340
55
1001
AcadAnnotative
1000
AnnotativeData
1002
{
1070
     1
1070
     1
1002
}
  0
DIMSTYLE
105
98
330
A
100
AcDbSymbolTableRecord
100
AcDbDimStyleTableRecord
  2
Default - Method 1b (ISO)
 70
     0
 41
2.5
 42
0.0
 43
5.999999999999999
 44
3.174999999999998
 45
0.00000001
 46
10.0
 73
     0
 77
     1
 78
     8
 79
     2
140
2.5
143
0.03937
147
0.762
171
     3
172
     1
176
   256
177
   256
178
   256
179
     2
271
     2
272
     2
274
     3
278
    44
284
     8
285
     8
286
     8
340
93
371
    -1
372
    -1
  0
DIMSTYLE
105
99
330
A
100
AcDbSymbolTableRecord
100
AcDbDimStyleTableRecord
  2
Default - Method 1b (ISO)$7
 70
     0
 41
2.5
 42
0.0
 43
5.999999999999999
 44
3.174999999999998
 45
0.00000001
 46
10.0
 73
     0
 77
     1
 78
     8
 79
     2
140
2.5
143
0.03937
147
0.762
171
     3
172
     1
176
   256
177
   256
178
   256
179
     2
271
     2
272
     2
274
     3
278
    44
284
     8
285
     8
286
     8
340
93
371
    -1
372
    -1
  0
DIMSTYLE
105
9A
330
A
100
AcDbSymbolTableRecord
100
AcDbDimStyleTableRecord
  2
Default - Method 2a (ISO)
 70
     0
 41
2.5
 42
0.0
 43
5.999999999999999
 44
3.174999999999998
 45
0.00000001
 46
10.0
 77
     1
 78
     8
 79
     2
140
2.5
143
0.03937
147
0.762
171
     3
172
     1
176
   256
177
   256
178
   256
179
     2
271
     2
272
     2
274
     3
278
    44
284
     8
285
     8
286
     8
340
93
371
    -1
372
    -1
  0
DIMSTYLE
105
9B
330
A
100
AcDbSymbolTableRecord
100
AcDbDimStyleTableRecord
  2
Default - Method 2a (ISO)$7
 70
     0
 41
2.5
 42
0.0
 43
5.999999999999999
 44
3.174999999999998
 45
0.00000001
 46
10.0
 77
     1
 78
     8
 79
     2
140
2.5
143
0.03937
147
0.762
171
     3
172
     1
176
   256
177
   256
178
   256
179
     2
271
     2
272
     2
274
     3
278
    44
284
     8
285
     8
286
     8
340
93
371
    -1
372
    -1
  0
DIMSTYLE
105
9C
330
A
100
AcDbSymbolTableRecord
100
AcDbDimStyleTableRecord
  2
Default - Method 2b (ISO)
 70
     0
 41
2.5
 42
0.0
 43
5.999999999999999
 44
3.174999999999998
 45
0.00000001
 46
10.0
 77
     1
 78
     8
 79
     2
140
2.5
143
0.03937
147
0.762
171
     3
172
     1
176
   256
177
   256
178
   256
179
     2
271
     2
272
     2
274
     3
278
    44
284
     8
285
     8
286
     8
340
93
371
    -1
372
    -1
  0
DIMSTYLE
105
9D
330
A
100
AcDbSymbolTableRecord
100
AcDbDimStyleTableRecord
  2
Default - Method 2b (ISO)$7
 70
     0
 41
2.5
 42
0.0
 43
5.999999999999999
 44
3.174999999999998
 45
0.00000001
 46
10.0
 77
     1
 78
     8
 79
     2
140
2.5
143
0.03937
147
0.762
171
     3
172
     1
176
   256
177
   256
178
   256
179
     2
271
     2
272
     2
274
     3
278
    44
284
     8
285
     8
286
     8
340
93
371
    -1
372
    -1
  0
DIMSTYLE
105
9E
330
A
100
AcDbSymbolTableRecord
100
AcDbDimStyleTableRecord
  2
Default - mm [in] (ISO)
 70
     0
  4
 in
 41
2.5
 42
0.0
 43
5.999999999999999
 44
3.174999999999998
 45
0.00000001
 46
10.0
 73
     0
 77
     1
 78
     8
 79
     2
140
2.5
143
0.03937
147
0.762
170
     1
171
     3
172
     1
176
   256
177
   256
178
   256
179
     3
271
     3
272
     2
274
     3
275
     1
278
    44
284
     8
285
     8
286
     8
340
93
371
    -1
372
    -1
  0
DIMSTYLE
105
9F
330
A
100
AcDbSymbolTableRecord
100
AcDbDimStyleTableRecord
  2
Default - mm [in] (ISO)$7
 70
     0
  4
 in
 41
2.5
 42
0.0
 43
5.999999999999999
 44
3.174999999999998
 45
0.00000001
 46
10.0
 73
     0
 77
     1
 78
     8
 79
     2
140
2.5
143
0.03937
147
0.762
170
     1
171
     3
172
     1
176
   256
177
   256
178
   256
179
     3
271
     3
272
     2
274
     3
275
     1
278
    44
284
     8
285
     8
286
     8
340
93
371
    -1
372
    -1
  0
DIMSTYLE
105
A0
330
A
100
AcDbSymbolTableRecord
100
AcDbDimStyleTableRecord
  2
Default (ISO)
 70
     0
 41
2.5
 42
0.0
 43
5.999999999999999
 44
3.174999999999998
 45
0.00000001
 46
10.0
 73
     0
 77
     1
 78
     8
 79
     2
140
2.5
143
0.03937
147
0.762
171
     3
172
     1
176
   256
177
   256
178
   256
179
     2
271
     2
272
     2
274
     3
278
    44
284
     8
285
     8
340
93
371
    -1
372
    -1
  0
DIMSTYLE
105
A1
330
A
100
AcDbSymbolTableRecord
100
AcDbDimStyleTableRecord
  2
Default (ISO)$7
 70
     0
 41
2.5
 42
0.0
 43
5.999999999999999
 44
3.174999999999998
 45
0.00000001
 46
10.0
 73
     0
 77
     1
 78
     8
 79
     2
140
2.5
143
0.03937
147
0.762
171
     3
172
     1
176
   256
177
   256
178
   256
179
     2
271
     2
272
     2
274
     3
278
    44
284
     8
285
     8
340
93
371
    -1
372
    -1
  0
DIMSTYLE
105
B0
330
A
100
AcDbSymbolTableRecord
100
AcDbDimStyleTableRecord
  2
Miscellaneous Object (ISO)
 70
     0
 41
2.5
 42
0.0
 43
5.999999999999999
 44
3.174999999999998
 45
0.00000001
 46
10.0
 73
     0
 77
     1
 78
     8
 79
     2
140
3.5
143
0.03937
146
0.7142857142857145
147
0.762
171
     3
172
     1
176
   256
177
   256
178
   256
179
     2
271
     2
272
     2
274
     3
278
    44
284
     8
285
     8
340
92
341
A2
371
    -1
372
    -1
  0
DIMSTYLE
105
B1
330
A
100
AcDbSymbolTableRecord
100
AcDbDimStyleTableRecord
  2
Miscellaneous Object (ISO)$7
 70
     0
 41
5.0
 42
0.0
 43
5.999999999999999
 44
3.174999999999998
 45
0.00000001
 46
10.0
 73
     0
 77
     1
 78
     8
 79
     2
140
3.5
143
0.03937
146
0.7142857142857145
147
0.762
171
     3
172
     1
176
   256
177
   256
178
   256
179
     2
271
     2
272
     2
274
     3
278
    44
284
     8
285
     8
340
92
341
A2
371
    25
372
    -1
  0
DIMSTYLE
105
B2
330
A
100
AcDbSymbolTableRecord
100
AcDbDimStyleTableRecord
  2
Alternate (ISO)
 70
     0
 41
2.5
340
55
342
B3
  0
DIMSTYLE
105
C4
330
A
100
AcDbSymbolTableRecord
100
AcDbDimStyleTableRecord
  2
Datum (ISO)
 70
     0
 41
2.5
340
55
342
B3
  0
ENDTAB
  0
TABLE
  2
BLOCK_RECORD
  5
1
330
0
100
AcDbSymbolTable
 70
     6
  0
BLOCK_RECORD
  5
6C
330
1
100
AcDbSymbolTableRecord
100
AcDbBlockTableRecord
  2
*Model_Space
340
6F
  0
BLOCK_RECORD
  5
68
330
1
100
AcDbSymbolTableRecord
100
AcDbBlockTableRecord
  2
*Paper_Space
340
6B
  0
BLOCK_RECORD
  5
70
330
1
100
AcDbSymbolTableRecord
100
AcDbBlockTableRecord
  2
*Paper_Space0
340
73
  0
BLOCK_RECORD
  5
A2
330
1
100
AcDbSymbolTableRecord
100
AcDbBlockTableRecord
  2
Filled-1
340
0
  0
BLOCK_RECORD
  5
B3
330
1
100
AcDbSymbolTableRecord
100
AcDbBlockTableRecord
  2
_Closed
340
0
  0
BLOCK_RECORD
  5
BA
330
1
100
AcDbSymbolTableRecord
100
AcDbBlockTableRecord
  2
DatumFilled45
340
0
  0
BLOCK_RECORD
  5
C5
330
1
100
AcDbSymbolTableRecord
100
AcDbBlockTableRecord
  2
Borders Standaard
340
0
  0
BLOCK_RECORD
  5
CD
330
1
100
AcDbSymbolTableRecord
100
AcDbBlockTableRecord
  2
Title Blocks Nieaf EN
340
0
  0
ENDTAB
  0
ENDSEC
  0
SECTION
  2
BLOCKS
  0
BLOCK
  5
6D
330
6C
100
AcDbEntity
  8
0
100
AcDbBlockBegin
  2
*Model_Space
 70
     0
 10
0.0
 20
0.0
 30
0.0
  3
*Model_Space
  1

  0
ENDBLK
  5
6E
330
6C
100
AcDbEntity
  8
0
100
AcDbBlockEnd
  0
BLOCK
  5
69
330
68
100
AcDbEntity
 67
     1
  8
0
100
AcDbBlockBegin
  2
*Paper_Space
 70
     0
 10
0.0
 20
0.0
 30
0.0
  3
*Paper_Space
  1

  0
ENDBLK
  5
6A
330
68
100
AcDbEntity
 67
     1
  8
0
100
AcDbBlockEnd
  0
BLOCK
  5
71
330
70
100
AcDbEntity
 67
     1
  8
0
100
AcDbBlockBegin
  2
*Paper_Space0
 70
     0
 10
0.0
 20
0.0
 30
0.0
  3
*Paper_Space0
  1

  0
ENDBLK
  5
72
330
70
100
AcDbEntity
 67
     1
  8
0
100
AcDbBlockEnd
  0
BLOCK
  5
A3
330
A2
100
AcDbEntity
  8
0
100
AcDbBlockBegin
  2
Filled-1
 70
     0
 10
0.0
 20
0.0
 30
0.0
  3
Filled-1
  1

  0
LINE
  5
A5
330
A2
100
AcDbEntity
  8
0
 62
     0
100
AcDbLine
 10
-1.0
 20
0.0
 30
0.0
 11
0.0
 21
0.0
 31
0.0
  0
POLYLINE
  5
A6
330
A2
100
AcDbEntity
  8
0
 62
     0
100
AcDb2dPolyline
 66
     1
 10
0.0
 20
0.0
 30
0.0
 70
   128
  0
VERTEX
  5
A7
330
A6
100
AcDbEntity
  8
0
 62
     0
100
AcDbVertex
100
AcDb2dVertex
 10
-1.0
 20
-0.1
 30
0.0
  0
VERTEX
  5
A8
330
A6
100
AcDbEntity
  8
0
 62
     0
100
AcDbVertex
100
AcDb2dVertex
 10
0.0
 20
0.0
 30
0.0
  0
VERTEX
  5
AA
330
A6
100
AcDbEntity
  8
0
 62
     0
100
AcDbVertex
100
AcDb2dVertex
 10
-1.0
 20
0.1
 30
0.0
  0
VERTEX
  5
AB
330
A6
100
AcDbEntity
  8
0
 62
     0
100
AcDbVertex
100
AcDb2dVertex
 10
-1.0
 20
-0.1
 30
0.0
  0
SEQEND
  5
A9
330
A6
100
AcDbEntity
  8
0
 62
     0
  0
SOLID
  5
AC
330
A2
100
AcDbEntity
  8
0
 62
     0
100
AcDbTrace
 10
-1.0
 20
-0.1
 30
0.0
 11
0.0
 21
0.0
 31
0.0
 12
-1.0
 22
0.1
 32
0.0
 13
-1.0
 23
-0.1
 33
0.0
  0
LINE
  5
AD
330
A2
100
AcDbEntity
  8
0
 62
     0
100
AcDbLine
 10
-1.0
 20
-0.1
 30
0.0
 11
0.0
 21
0.0
 31
0.0
  0
LINE
  5
AE
330
A2
100
AcDbEntity
  8
0
 62
     0
100
AcDbLine
 10
0.0
 20
0.0
 30
0.0
 11
-1.0
 21
0.1
 31
0.0
  0
LINE
  5
AF
330
A2
100
AcDbEntity
  8
0
 62
     0
100
AcDbLine
 10
-1.0
 20
0.1
 30
0.0
 11
-1.0
 21
-0.1
 31
0.0
  0
ENDBLK
  5
A4
330
A2
100
AcDbEntity
  8
0
100
AcDbBlockEnd
  0
BLOCK
  5
B8
330
B3
100
AcDbEntity
  8
0
100
AcDbBlockBegin
  2
_Closed
 70
     0
 10
0.0
 20
0.0
 30
0.0
  3
_Closed
  1

  0
LINE
  5
B4
330
B3
100
AcDbEntity
  8
0
  6
ByBlock
 62
     0
370
    -2
100
AcDbLine
 10
-1.0
 20
0.1666666666666666
 30
0.0
 11
0.0
 21
0.0
 31
0.0
  0
LINE
  5
B5
330
B3
100
AcDbEntity
  8
0
  6
ByBlock
 62
     0
370
    -2
100
AcDbLine
 10
0.0
 20
0.0
 30
0.0
 11
-1.0
 21
-0.1666666666666666
 31
0.0
  0
LINE
  5
B6
330
B3
100
AcDbEntity
  8
0
  6
ByBlock
 62
     0
370
    -2
100
AcDbLine
 10
-1.0
 20
0.1666666666666666
 30
0.0
 11
-1.0
 21
-0.1666666666666666
 31
0.0
  0
LINE
  5
B7
330
B3
100
AcDbEntity
  8
0
  6
ByBlock
 62
     0
370
    -2
100
AcDbLine
 10
0.0
 20
0.0
 30
0.0
 11
-1.0
 21
0.0
 31
0.0
  0
ENDBLK
  5
B9
330
B3
100
AcDbEntity
  8
0
100
AcDbBlockEnd
  0
BLOCK
  5
BB
330
BA
100
AcDbEntity
  8
0
100
AcDbBlockBegin
  2
DatumFilled45
 70
     0
 10
0.0
 20
0.0
 30
0.0
  3
DatumFilled45
  1

  0
POLYLINE
  5
BD
330
BA
100
AcDbEntity
  8
0
 62
     0
100
AcDb2dPolyline
 66
     1
 10
0.0
 20
0.0
 30
0.0
 70
   128
  0
VERTEX
  5
BE
330
BD
100
AcDbEntity
  8
0
 62
     0
100
AcDbVertex
100
AcDb2dVertex
 10
0.0
 20
1.0
 30
0.0
  0
VERTEX
  5
BF
330
BD
100
AcDbEntity
  8
0
 62
     0
100
AcDbVertex
100
AcDb2dVertex
 10
0.0
 20
-1.0
 30
0.0
  0
VERTEX
  5
C1
330
BD
100
AcDbEntity
  8
0
 62
     0
100
AcDbVertex
100
AcDb2dVertex
 10
-1.0
 20
0.0
 30
0.0
  0
VERTEX
  5
C2
330
BD
100
AcDbEntity
  8
0
 62
     0
100
AcDbVertex
100
AcDb2dVertex
 10
0.0
 20
1.0
 30
0.0
  0
SEQEND
  5
C0
330
BD
100
AcDbEntity
  8
0
 62
     0
  0
SOLID
  5
C3
330
BA
100
AcDbEntity
  8
0
 62
     0
100
AcDbTrace
 10
0.0
 20
1.0
 30
0.0
 11
0.0
 21
-1.0
 31
0.0
 12
-1.0
 22
0.0
 32
0.0
 13
0.0
 23
1.0
 33
0.0
  0
ENDBLK
  5
BC
330
BA
100
AcDbEntity
  8
0
100
AcDbBlockEnd
  0
BLOCK
  5
C6
330
C5
100
AcDbEntity
  8
0
100
AcDbBlockBegin
  2
Borders Standaard
 70
     0
 10
0.0
 20
0.0
 30
0.0
  3
Borders Standaard
  1

  0
LINE
  5
C8
330
C5
100
AcDbEntity
  8
Border (ISO)
100
AcDbLine
 10
10.0
 20
287.0
 30
0.0
 11
200.0
 21
287.0
 31
0.0
  0
LINE
  5
C9
330
C5
100
AcDbEntity
  8
Border (ISO)
100
AcDbLine
 10
10.0
 20
10.0
 30
0.0
 11
200.0
 21
10.0
 31
0.0
  0
LINE
  5
CA
330
C5
100
AcDbEntity
  8
Border (ISO)
100
AcDbLine
 10
10.0
 20
287.0
 30
0.0
 11
10.0
 21
10.0
 31
0.0
  0
LINE
  5
CB
330
C5
100
AcDbEntity
  8
Border (ISO)
100
AcDbLine
 10
200.0
 20
287.0
 30
0.0
 11
200.0
 21
10.0
 31
0.0
  0
ENDBLK
  5
C7
330
C5
100
AcDbEntity
  8
0
100
AcDbBlockEnd
  0
BLOCK
  5
CE
330
CD
100
AcDbEntity
  8
0
100
AcDbBlockBegin
  2
Title Blocks Nieaf EN
 70
     2
 10
0.0
 20
0.0
 30
0.0
  3
Title Blocks Nieaf EN
  1

  0
HATCH
  5
DC
330
CD
100
AcDbEntity
  8
Hatch (ISO)
100
AcDbHatch
 10
0.0
 20
0.0
 30
0.0
210
0.0
220
0.0
230
1.0
  2
SOLID
 70
     1
 71
     0
 91
        1
 92
        1
 93
       12
 72
     1
 10
106.3264662600193
 20
67.32123846076929
 11
105.4923728549176
 21
69.05389309331997
 72
     1
 10
105.4923728549176
 20
69.05389309331997
 11
105.4837808523599
 21
69.05389309331997
 72
     1
 10
105.4837808523599
 20
69.05389309331997
 11
105.4837808523599
 21
67.32123846076929
 72
     1
 10
105.4837808523599
 20
67.32123846076929
 11
104.8559660636475
 21
67.32123846076929
 72
     1
 10
104.8559660636475
 20
67.32123846076929
 11
104.8559660636475
 21
70.27513401906663
 72
     1
 10
104.8559660636475
 20
70.27513401906663
 11
105.4751888498023
 21
70.27513401906663
 72
     1
 10
105.4751888498023
 20
70.27513401906663
 11
106.2706947587104
 21
68.61528297354881
 72
     1
 10
106.2706947587104
 20
68.61528297354881
 11
106.279307402716
 21
68.61528297354881
 72
     1
 10
106.279307402716
 20
68.61528297354881
 11
106.279307402716
 21
70.27513401906663
 72
     1
 10
106.279307402716
 20
70.27513401906663
 11
106.9071273517903
 21
70.27513401906663
 72
     1
 10
106.9071273517903
 20
70.27513401906663
 11
106.9071273517903
 21
67.32123846076929
 72
     1
 10
106.9071273517903
 20
67.32123846076929
 11
106.3264662600193
 21
67.32123846076929
 97
        0
 75
     0
 76
     1
 98
        1
 10
0.0
 20
0.0
  0
HATCH
  5
E1
330
CD
100
AcDbEntity
  8
Hatch (ISO)
100
AcDbHatch
 10
0.0
 20
0.0
 30
0.0
210
0.0
220
0.0
230
1.0
  2
SOLID
 70
     1
 71
     0
 91
        1
 92
        1
 93
        4
 72
     1
 10
108.0338149665041
 20
70.27513401906663
 11
107.3672923032028
 21
70.27513401906663
 72
     1
 10
107.3672923032028
 20
70.27513401906663
 11
107.3672923032028
 21
67.32123846076929
 72
     1
 10
107.3672923032028
 20
67.32123846076929
 11
108.0338149665041
 21
67.32123846076929
 72
     1
 10
108.0338149665041
 20
67.32123846076929
 11
108.0338149665041
 21
70.27513401906663
 97
        0
 75
     0
 76
     1
 98
        1
 10
0.0
 20
0.0
  0
HATCH
  5
EE
330
CD
100
AcDbEntity
  8
Hatch (ISO)
100
AcDbHatch
 10
0.0
 20
0.0
 30
0.0
210
0.0
220
0.0
230
1.0
  2
SOLID
 70
     1
 71
     0
 91
        1
 92
        1
 93
       12
 72
     1
 10
110.1236996103218
 20
69.08400380498722
 11
109.1518641354034
 21
69.08400380498722
 72
     1
 10
109.1518641354034
 20
69.08400380498722
 11
109.1518641354034
 21
69.76771047340314
 72
     1
 10
109.1518641354034
 20
69.76771047340314
 11
110.1967961365873
 21
69.76771047340314
 72
     1
 10
110.1967961365873
 20
69.76771047340314
 11
110.1967961365873
 21
70.27513401906663
 72
     1
 10
110.1967961365873
 20
70.27513401906663
 11
108.4853466324649
 21
70.27513401906663
 72
     1
 10
108.4853466324649
 20
70.27513401906663
 11
108.4853466324649
 21
67.32123846076929
 72
     1
 10
108.4853466324649
 20
67.32123846076929
 11
110.2354988508133
 21
67.32123846076929
 72
     1
 10
110.2354988508133
 20
67.32123846076929
 11
110.2354988508133
 21
67.84555823267671
 72
     1
 10
110.2354988508133
 20
67.84555823267671
 11
109.1518641354034
 21
67.84555823267671
 72
     1
 10
109.1518641354034
 20
67.84555823267671
 11
109.1518641354034
 21
68.57658025932363
 72
     1
 10
109.1518641354034
 20
68.57658025932365
 11
110.1236996103218
 21
68.57658025932365
 72
     1
 10
110.1236996103218
 20
68.57658025932365
 11
110.1236996103218
 21
69.08400380498723
 97
        0
 75
     0
 76
     1
 98
        1
 10
0.0
 20
0.0
  0
HATCH
  5
FB
330
CD
100
AcDbEntity
  8
Hatch (ISO)
100
AcDbHatch
 10
0.0
 20
0.0
 30
0.0
210
0.0
220
0.0
230
1.0
  2
SOLID
 70
     1
 71
     0
 91
        2
 92
        0
 93
        4
 72
     1
 10
111.287933448968
 20
68.41448030636145
 11
111.7565125426829
 21
68.40295421601837
 72
     1
 10
111.7565125426829
 20
68.40295421601839
 11
111.5548981500665
 21
69.47466616599935
 72
     1
 10
111.5548981500665
 20
69.47466616599935
 11
111.5463035868651
 21
69.47487757473107
 72
     1
 10
111.5463035868651
 20
69.47487757473107
 11
111.287933448968
 21
68.41448030636145
 97
        0
 92
        1
 93
        8
 72
     1
 10
112.6511840214936
 20
67.32123846076929
 11
111.8815304471711
 21
70.27513401906663
 72
     1
 10
111.8815304471711
 20
70.27513401906663
 11
111.189211134749
 21
70.27513401906663
 72
     1
 10
111.189211134749
 20
70.27513401906663
 11
110.4195627202785
 21
67.32123846076929
 72
     1
 10
110.4195627202785
 20
67.32123846076929
 11
111.0645790705864
 21
67.32123846076929
 72
     1
 10
111.0645790705864
 20
67.32123846076929
 11
111.2064209416759
 21
67.93155566368523
 72
     1
 10
111.2064209416759
 20
67.93155566368525
 11
111.8686295424305
 21
67.93155566368525
 72
     1
 10
111.8686295424305
 20
67.93155566368525
 11
112.0061697364079
 21
67.32123846076929
 72
     1
 10
112.0061697364079
 20
67.32123846076929
 11
112.6511840214936
 21
67.32123846076929
 97
        0
 75
     0
 76
     1
 98
        1
 10
0.0
 20
0.0
  0
HATCH
  5
106
330
CD
100
AcDbEntity
  8
Hatch (ISO)
100
AcDbHatch
 10
0.0
 20
0.0
 30
0.0
210
0.0
220
0.0
230
1.0
  2
SOLID
 70
     1
 71
     0
 91
        1
 92
        1
 93
       10
 72
     1
 10
114.4736353642601
 20
69.04477745035819
 11
113.6342821180206
 21
69.04477745035819
 72
     1
 10
113.6342821180206
 20
69.04477745035819
 11
113.6342821180206
 21
69.73707612133232
 72
     1
 10
113.6342821180206
 20
69.73707612133232
 11
114.5469909687375
 21
69.75044436378468
 72
     1
 10
114.5469909687375
 20
69.75044436378468
 11
114.5469909687375
 21
70.27513401906664
 72
     1
 10
114.5469909687375
 20
70.27513401906663
 11
112.9599261526202
 21
70.27513401906663
 72
     1
 10
112.9599261526202
 20
70.27513401906663
 11
112.9599261526206
 21
67.32123846076929
 72
     1
 10
112.9599261526206
 20
67.32123846076929
 11
113.6265000345756
 21
67.32123846076929
 72
     1
 10
113.6265000345756
 20
67.32123846076929
 11
113.6265000345756
 21
68.55077841841993
 72
     1
 10
113.6265000345756
 20
68.55077841841993
 11
114.4736353642601
 21
68.55077841841993
 72
     1
 10
114.4736353642601
 20
68.55077841841993
 11
114.4736353642601
 21
69.04477745035819
 97
        0
 75
     0
 76
     1
 98
        1
 10
0.0
 20
0.0
  0
HATCH
  5
10B
330
CD
100
AcDbEntity
  8
Hatch (ISO)
100
AcDbHatch
 10
0.0
 20
0.0
 30
0.0
210
0.0
220
0.0
230
1.0
  2
SOLID
 70
     1
 71
     0
 91
        1
 92
        1
 93
        4
 72
     1
 10
117.0436473624968
 20
66.90537263605786
 11
118.0436473624968
 21
66.90537263605786
 72
     2
 10
113.075682357691
 20
66.90537263605786
 40
4.967965004805782
 50
0.0
 51
90.00000000000019
 73
     1
 72
     1
 10
113.075682357691
 20
71.87333764086365
 11
113.075682357691
 21
70.87333764086365
 72
     2
 10
113.075682357691
 20
66.90537263605786
 40
3.967965004805781
 50
269.9999999999998
 51
360.0
 73
     0
 97
        0
 75
     0
 76
     1
 98
        1
 10
0.0
 20
0.0
  0
HATCH
  5
114
330
CD
100
AcDbEntity
  8
Hatch (ISO)
100
AcDbHatch
 10
0.0
 20
0.0
 30
0.0
210
0.0
220
0.0
230
1.0
  2
SOLID
 70
     1
 71
     0
 91
        1
 92
        1
 93
        8
 72
     1
 10
119.2318213557365
 20
65.97081811890285
 11
119.2336046342594
 21
66.48950681134643
 72
     1
 10
119.2336046342594
 20
66.48950681134643
 11
121.2316708138178
 21
66.48950681134643
 72
     1
 10
121.2316708138178
 20
66.48950681134643
 11
121.2334121147566
 21
65.98302782021597
 72
     1
 10
121.2334121147566
 20
65.98302782021597
 11
120.5692145556667
 21
65.98302782021597
 72
     1
 10
120.5692145556666
 20
65.98302782021597
 11
120.5692145556666
 21
63.53788808925247
 72
     1
 10
120.5692145556666
 20
63.53788808925246
 11
119.8943117114546
 21
63.54020844009978
 72
     1
 10
119.8943117114547
 20
63.54020844009979
 11
119.8943117114546
 21
65.96854044283218
 72
     1
 10
119.8943117114546
 20
65.96854044283218
 11
119.2318213557365
 21
65.97081811890285
 97
        0
 75
     0
 76
     1
 98
        1
 10
0.0
 20
0.0
  0
HATCH
  5
11D
330
CD
100
AcDbEntity
  8
Hatch (ISO)
100
AcDbHatch
 10
0.0
 20
0.0
 30
0.0
210
0.0
220
0.0
230
1.0
  2
SOLID
 70
     1
 71
     0
 91
        1
 92
        1
 93
        8
 72
     1
 10
119.0385246875741
 20
66.48950681134643
 11
117.0404585080184
 21
66.48950681134643
 72
     1
 10
117.0404585080184
 20
66.48950681134643
 11
117.0404585080184
 21
65.97835213759053
 72
     1
 10
117.0404585080184
 20
65.97835213759053
 11
117.7011785468099
 21
65.97608054796092
 72
     1
 10
117.7011785468099
 20
65.97608054796092
 11
117.70117854681
 21
63.54774854522847
 72
     1
 10
117.70117854681
 20
63.54774854522847
 11
118.3760684294257
 21
63.54542823894377
 72
     1
 10
118.3760684294257
 20
63.54542823894377
 11
118.3760684294257
 21
65.98530238572489
 72
     1
 10
118.3760684294257
 20
65.98530238572489
 11
119.0385246875741
 21
65.98302482688348
 72
     1
 10
119.0385246875741
 20
65.98302482688348
 11
119.0385246875741
 21
66.48950681134643
 97
        0
 75
     0
 76
     1
 98
        1
 10
0.0
 20
0.0
  0
HATCH
  5
122
330
CD
100
AcDbEntity
  8
Hatch (ISO)
100
AcDbHatch
 10
0.0
 20
0.0
 30
0.0
210
0.0
220
0.0
230
1.0
  2
SOLID
 70
     1
 71
     0
 91
        1
 92
        1
 93
        4
 72
     1
 10
116.0412913787583
 20
63.55345532307063
 11
116.7078088816976
 21
63.55116380145975
 72
     1
 10
116.7078088816976
 20
63.55116380145975
 11
116.7078088816976
 21
66.48950681134643
 72
     1
 10
116.7078088816976
 20
66.48950681134643
 11
116.0412913787583
 21
66.48950681134643
 72
     1
 10
116.0412913787583
 20
66.48950681134643
 11
116.0412913787583
 21
63.55345532307064
 97
        0
 75
     0
 76
     1
 98
        1
 10
0.0
 20
0.0
  0
HATCH
  5
132
330
CD
100
AcDbEntity
  8
Hatch (ISO)
100
AcDbHatch
 10
0.0
 20
0.0
 30
0.0
210
0.0
220
0.0
230
1.0
  2
SOLID
 70
     1
 71
     0
 91
        1
 92
        1
 93
       15
 72
     1
 10
113.6787609379054
 20
66.48950681134643
 11
114.3367259972529
 21
65.2702576137396
 72
     1
 10
114.3367259972529
 20
65.2702576137396
 11
115.0296516946219
 21
66.48950681134643
 72
     1
 10
115.0296516946219
 20
66.48950681134643
 11
115.6154268463999
 21
66.48950681134643
 72
     1
 10
115.6154268463999
 20
66.48950681134643
 11
115.6154268463999
 21
63.55491946733526
 72
     1
 10
115.6154268463999
 20
63.55491946733525
 11
114.9876120576866
 21
63.557077927015
 72
     1
 10
114.9876120576866
 20
63.55707792701501
 11
114.9876120576866
 21
65.45752420242386
 72
     1
 10
114.9876120576866
 20
65.45752420242386
 11
114.9637091119436
 21
65.45752420242386
 72
     1
 10
114.9637091119436
 20
65.45752420242386
 11
114.4564510849937
 21
64.30164173403935
 72
     1
 10
114.4564510849937
 20
64.30164173403936
 11
114.327442037577
 21
64.30164173403936
 72
     1
 10
114.327442037577
 20
64.30164173403936
 11
113.7474052525084
 21
65.41337890542172
 72
     1
 10
113.7474052525084
 20
65.41337890542171
 11
113.7235023067654
 21
65.41337890542171
 72
     1
 10
113.7235023067654
 20
65.41337890542171
 11
113.7235023067654
 21
63.56142400164915
 72
     1
 10
113.7235023067654
 20
63.56142400164916
 11
113.095682357691
 21
63.5635824790705
 72
     1
 10
113.095682357691
 20
63.5635824790705
 11
113.095682357691
 21
66.48950681134643
 72
     1
 10
113.095682357691
 20
66.48950681134643
 11
113.6787609379054
 21
66.48950681134643
 97
        0
 75
     0
 76
     1
 98
        1
 10
0.0
 20
0.0
  0
HATCH
  5
196
330
CD
100
AcDbEntity
  8
Hatch (ISO)
100
AcDbHatch
 10
0.0
 20
0.0
 30
0.0
210
0.0
220
0.0
230
1.0
  2
SOLID
 70
     1
 71
     0
 91
        1
 92
        1
 93
       99
 72
     1
 10
112.7093221234769
 20
64.72987863585207
 11
112.6591135840718
 21
64.81724659054922
 72
     1
 10
112.6591135840718
 20
64.81724659054922
 11
112.6017999195623
 21
64.90123062658746
 72
     1
 10
112.6017999195623
 20
64.90123062658748
 11
112.5387992838036
 21
64.98198423823899
 72
     1
 10
112.5387992838036
 20
64.98198423823899
 11
112.4715453114268
 21
65.05966101803385
 72
     1
 10
112.4715453114268
 20
65.05966101803382
 11
112.401461283792
 21
65.13441965325433
 72
     1
 10
112.401461283792
 20
65.13441965325433
 11
112.3299653875091
 21
65.20640847791483
 72
     1
 10
112.3299653875091
 20
65.20640847791483
 11
112.2584860314426
 21
65.27579137230848
 72
     1
 10
112.2584860314426
 20
65.27579137230848
 11
112.1884517554724
 21
65.34271157569675
 72
     1
 10
112.1884517554724
 20
65.34271157569678
 11
112.1212806806976
 21
65.40732774261027
 72
     1
 10
112.1212806806976
 20
65.40732774261025
 11
112.0583961212396
 21
65.46979340007275
 72
     1
 10
112.0583961212396
 20
65.46979340007275
 11
112.0012316789664
 21
65.53026730087227
 72
     1
 10
112.0012316789664
 20
65.53026730087227
 11
111.9512055732444
 21
65.58889261876579
 72
     1
 10
111.9512055732444
 20
65.58889261876579
 11
111.909741019932
 21
65.6458383615512
 72
     1
 10
111.909741019932
 20
65.6458383615512
 11
111.8782665588999
 21
65.7012477684901
 72
     1
 10
111.8782665588999
 20
65.7012477684901
 11
111.8582003440085
 21
65.75527433385449
 72
     1
 10
111.8582003440085
 20
65.75527433385449
 11
111.8509759443797
 21
65.80808197069046
 72
     1
 10
111.8509759443797
 20
65.80808197069045
 11
111.8858548304416
 21
65.91399839862001
 72
     1
 10
111.8858548304416
 20
65.91399839862003
 11
111.980934498387
 21
65.98455086647163
 72
     1
 10
111.980934498387
 20
65.9845508664716
 11
112.1218743025094
 21
66.01018754437437
 72
     1
 10
112.1218743025094
 20
66.01018754437437
 11
112.2089812113264
 21
66.00396414792702
 72
     1
 10
112.2089812113264
 20
66.00396414792702
 11
112.3006292386109
 21
65.98308532369303
 72
     1
 10
112.3006292386109
 20
65.98308532369303
 11
112.4054826319899
 21
65.94424844005844
 72
     1
 10
112.4054826319899
 20
65.94424844005844
 11
112.532210799449
 21
65.88415086540975
 72
     1
 10
112.532210799449
 20
65.88415086540975
 11
112.6894934696994
 21
65.79948996813252
 72
     1
 10
112.6894934696994
 20
65.79948996813254
 11
112.6894934696994
 21
66.34989932839527
 72
     1
 10
112.6894934696994
 20
66.34989932839527
 11
112.5775290976263
 21
66.40657558310668
 72
     1
 10
112.5775290976263
 20
66.40657558310668
 11
112.4689138004234
 21
66.45214673901636
 72
     1
 10
112.4689138004234
 20
66.45214673901636
 11
112.3626825904195
 21
66.48696886109535
 72
     1
 10
112.3626825904195
 20
66.48696886109535
 11
112.2578859610204
 21
66.51139801431428
 72
     1
 10
112.2578859610204
 20
66.51139801431428
 11
112.1535692452782
 21
66.52579542400586
 72
     1
 10
112.1535692452782
 20
66.52579542400586
 11
112.0487777762429
 21
66.53051199477943
 72
     1
 10
112.0487777762429
 20
66.53051199477943
 11
111.9407301188504
 21
66.52481495524556
 72
     1
 10
111.9407301188504
 20
66.52481495524556
 11
111.8373422682509
 21
66.50815214668114
 72
     1
 10
111.8373422682509
 20
66.50815214668114
 11
111.7393108732996
 21
66.48115313323761
 72
     1
 10
111.7393108732996
 20
66.48115313323761
 11
111.6473274224892
 21
66.44445263942839
 72
     1
 10
111.6473274224892
 20
66.44445263942839
 11
111.5620834043185
 21
66.39869055012866
 72
     1
 10
111.5620834043185
 20
66.39869055012865
 11
111.4842703072783
 21
66.34449126912763
 72
     1
 10
111.4842703072783
 20
66.34449126912763
 11
111.4145899405868
 21
66.28249468130078
 72
     1
 10
111.4145899405868
 20
66.28249468130078
 11
111.3537286323782
 21
66.21334067152324
 72
     1
 10
111.3537286323782
 20
66.21334067152324
 11
111.3023727107812
 21
66.13764848322272
 72
     1
 10
111.3023727107813
 20
66.13764848322272
 11
111.2612291453808
 21
66.05606316163608
 72
     1
 10
111.2612291453808
 20
66.05606316163608
 11
111.2309791039426
 21
65.96921943127671
 72
     1
 10
111.2309791039426
 20
65.9692194312767
 11
111.2123243956859
 21
65.87774685629584
 72
     1
 10
111.2123243956859
 20
65.87774685629584
 11
111.2059513487422
 21
65.78228016120714
 72
     1
 10
111.2059513487422
 20
65.78228016120715
 11
111.2125927345034
 21
65.67808213378919
 72
     1
 10
111.2125927345033
 20
65.67808213378916
 11
111.2315983473701
 21
65.57937473142924
 72
     1
 10
111.2315983473701
 20
65.57937473142924
 11
111.2615955310749
 21
65.4857915684328
 72
     1
 10
111.2615955310749
 20
65.4857915684328
 11
111.3012064689939
 21
65.39695593838139
 72
     1
 10
111.3012064689939
 20
65.39695593838138
 11
111.3490636652242
 21
65.31249629521822
 72
     1
 10
111.3490636652242
 20
65.31249629521822
 11
111.4037893031392
 21
65.23203077216293
 72
     1
 10
111.4037893031392
 20
65.23203077216293
 11
111.4640158868334
 21
65.15519298352142
 72
     1
 10
111.4640158868334
 20
65.15519298352143
 11
111.5283552789625
 21
65.08160622287459
 72
     1
 10
111.5283552789625
 20
65.08160622287459
 11
111.5954503043432
 21
65.01089378380425
 72
     1
 10
111.5954503043432
 20
65.01089378380425
 11
111.6639128256276
 21
64.94268928061558
 72
     1
 10
111.6639128256276
 20
64.94268928061557
 11
111.7323805072721
 21
64.87661084652858
 72
     1
 10
111.7323805072721
 20
64.87661084652858
 11
111.7994703722908
 21
64.81228177512433
 72
     1
 10
111.7994703722908
 20
64.81228177512433
 11
111.8638149247792
 21
64.74934084107046
 72
     1
 10
111.8638149247792
 20
64.74934084107046
 11
111.924036348115
 21
64.68740101722445
 72
     1
 10
111.924036348115
 20
64.68740101722445
 11
111.9787619860291
 21
64.62609075752992
 72
     1
 10
111.9787619860291
 20
64.62609075752992
 11
112.0266191822594
 21
64.565043676292
 72
     1
 10
112.0266191822594
 20
64.565043676292
 11
112.0662352805404
 21
64.50387790673064
 72
     1
 10
112.0662352805404
 20
64.50387790673064
 11
112.0962273038822
 21
64.44222190278917
 72
     1
 10
112.0962273038822
 20
64.44222190278917
 11
112.1152329167482
 21
64.37970411841053
 72
     1
 10
112.1152329167482
 20
64.37970411841053
 11
112.1223996751332
 21
64.31599959943294
 72
     1
 10
112.1223996751332
 20
64.31599959943294
 11
112.088565726518
 21
64.18909658792329
 72
     1
 10
112.088565726518
 20
64.18909658792329
 11
111.9942073417973
 21
64.10183330296874
 72
     1
 10
111.9942073417973
 20
64.10183330296873
 11
111.8535310711429
 21
64.06865766787861
 72
     1
 10
111.8535310711429
 20
64.06865766787861
 11
111.7658008841061
 21
64.07504568608151
 72
     1
 10
111.7658008841061
 20
64.07504568608151
 11
111.676509147036
 21
64.09683019584496
 72
     1
 10
111.676509147036
 20
64.09683019584496
 11
111.5820599723422
 21
64.13576710042129
 72
     1
 10
111.5820599723422
 20
64.13576710042129
 11
111.4788521420989
 21
64.19363290126994
 72
     1
 10
111.4788521420989
 20
64.19363290126994
 11
111.3632949714339
 21
64.27217838399423
 72
     1
 10
111.3632949714339
 20
64.27217838399423
 11
111.23177704966
 21
64.37316448441889
 72
     1
 10
111.23177704966
 20
64.37316448441889
 11
111.23177704966
 21
63.7410407935225
 72
     1
 10
111.23177704966
 20
63.7410407935225
 11
111.3462493576152
 21
63.67672720320379
 72
     1
 10
111.3462493576152
 20
63.67672720320379
 11
111.4546324385299
 21
63.62354967385842
 72
     1
 10
111.4546324385299
 20
63.62354967385842
 11
111.5581957414359
 21
63.58105409363907
 72
     1
 10
111.5581957414359
 20
63.58105409363908
 11
111.6582293568034
 21
63.5487863506993
 72
     1
 10
111.6582293568034
 20
63.5487863506993
 11
111.7560027336593
 21
63.52629749355346
 72
     1
 10
111.7560027336593
 20
63.52629749355346
 11
111.8528008021166
 21
63.51313341035481
 72
     1
 10
111.8528008021166
 20
63.51313341035481
 11
111.9499033319279
 21
63.50884514961872
 72
     1
 10
111.9499033319279
 20
63.50884514961872
 11
112.0520939785683
 21
63.51415516201033
 72
     1
 10
112.0520939785683
 20
63.51415516201033
 11
112.1500634491748
 21
63.52974461530024
 72
     1
 10
112.1500634491748
 20
63.52974461530024
 11
112.2432750661155
 21
63.55509231293691
 72
     1
 10
112.2432750661155
 20
63.55509231293691
 11
112.3311921517507
 21
63.58968221873043
 72
     1
 10
112.3311921517506
 20
63.58968221873043
 11
112.4356801367212
 21
63.64639534913719
 72
     1
 10
112.4356801367212
 20
63.64639534913719
 11
112.4903192609251
 21
63.68231296571435
 72
     1
 10
112.4903192609251
 20
63.68231296571433
 11
112.560079015802
 21
63.74042250894435
 72
     1
 10
112.560079015802
 20
63.74042250894435
 11
112.6225180782611
 21
63.80582268372651
 72
     1
 10
112.6225180782611
 20
63.80582268372652
 11
112.6770864459938
 21
63.8780061644972
 72
     1
 10
112.6770864459938
 20
63.8780061644972
 11
112.7232444360965
 21
63.95646546102685
 72
     1
 10
112.7232444360965
 20
63.95646546102685
 11
112.7604523656763
 21
64.04069308308696
 72
     1
 10
112.7604523656763
 20
64.04069308308696
 11
112.7881601500918
 21
64.1301765454082
 72
     1
 10
112.7881601500919
 20
64.1301765454082
 11
112.8058229467381
 21
64.22440844009468
 72
     1
 10
112.8058229467381
 20
64.22440844009469
 11
112.8115069712232
 21
64.32968322878584
 72
     1
 10
112.8115069712232
 20
64.32968322878583
 11
112.8030734966544
 21
64.44594108431267
 72
     1
 10
112.8030734966544
 20
64.44594108431267
 11
112.7827253775058
 21
64.54438198988754
 72
     1
 10
112.7827253775058
 20
64.54438198988754
 11
112.7510021909106
 21
64.63897839572931
 72
     1
 10
112.7510021909106
 20
64.63897839572931
 11
112.7093221234769
 21
64.72987863585207
 97
        0
 75
     0
 76
     1
 98
        1
 10
0.0
 20
0.0
  0
HATCH
  5
19B
330
CD
100
AcDbEntity
  8
Hatch (ISO)
100
AcDbHatch
 10
0.0
 20
0.0
 30
0.0
210
0.0
220
0.0
230
1.0
  2
SOLID
 70
     1
 71
     0
 91
        1
 92
        1
 93
        4
 72
     1
 10
109.0877173528852
 20
66.90537263605786
 11
108.0877173528852
 21
66.90537263605786
 72
     2
 10
113.055682357691
 20
66.90537263605786
 40
4.967965004805782
 50
180.0
 51
270.2306615856767
 73
     1
 72
     1
 10
113.075682357691
 20
61.93744788934774
 11
113.075682357691
 21
62.93745803524255
 72
     2
 10
113.055682357691
 20
66.90537263605786
 40
3.967965004805781
 50
89.71120701896756
 51
180.0
 73
     0
 97
        0
 75
     0
 76
     1
 98
        1
 10
0.0
 20
0.0
  0
LINE
  5
19C
330
CD
100
AcDbEntity
  8
Title (ISO)
100
AcDbLine
 10
291.5747844708676
 20
72.90318968847015
 30
0.0
 11
101.5747844708677
 21
72.90318968847002
 31
0.0
  0
LINE
  5
19D
330
CD
100
AcDbEntity
  8
Title (ISO)
100
AcDbLine
 10
291.5747844708676
 20
85.90318968847013
 30
0.0
 11
101.5747844708677
 21
85.90318968847
 31
0.0
  0
LINE
  5
19E
330
CD
100
AcDbEntity
  8
Title (ISO)
100
AcDbLine
 10
291.5747844708676
 20
94.90318968847015
 30
0.0
 11
101.5747844708676
 21
94.90318968847001
 31
0.0
  0
LINE
  5
19F
330
CD
100
AcDbEntity
  8
Title (ISO)
100
AcDbLine
 10
291.5747844708676
 20
60.90318968847014
 30
0.0
 11
291.5747844708675
 21
111.3199052888143
 31
0.0
  0
LINE
  5
1A0
330
CD
100
AcDbEntity
  8
Title (ISO)
100
AcDbLine
 10
287.5747844708676
 20
94.90318968847011
 30
0.0
 11
287.5747844708675
 21
111.3199052888142
 31
0.0
  0
LINE
  5
1A1
330
CD
100
AcDbEntity
  8
Title (ISO)
100
AcDbLine
 10
101.5747844708677
 20
60.90318968847
 30
0.0
 11
101.5747844708677
 21
94.90318968847001
 31
0.0
  0
LINE
  5
1A2
330
CD
100
AcDbEntity
  8
Title (ISO)
100
AcDbLine
 10
291.5747844708676
 20
60.90318968847014
 30
0.0
 11
101.5747844708676
 21
60.90318968847
 31
0.0
  0
LINE
  5
1A3
330
CD
100
AcDbEntity
  8
Title (ISO)
100
AcDbLine
 10
257.5747844708676
 20
94.90318968847011
 30
0.0
 11
257.5747844708676
 21
111.3199052888142
 31
0.0
  0
LINE
  5
1A4
330
CD
100
AcDbEntity
  8
Title (ISO)
100
AcDbLine
 10
291.5747844708675
 20
111.3199052888143
 30
0.0
 11
257.5747844708676
 21
111.3199052888142
 31
0.0
  0
LINE
  5
1A5
330
CD
100
AcDbEntity
  8
Title (ISO)
100
AcDbLine
 10
287.5747844708676
 20
107.2157263887282
 30
0.0
 11
257.5747844708676
 21
107.2157263887282
 31
0.0
  0
LINE
  5
1A6
330
CD
100
AcDbEntity
  8
Title (ISO)
100
AcDbLine
 10
287.5747844708676
 20
103.1115474886422
 30
0.0
 11
257.5747844708676
 21
103.1115474886421
 31
0.0
  0
LINE
  5
1A7
330
CD
100
AcDbEntity
  8
Title (ISO)
100
AcDbLine
 10
287.5747844708676
 20
99.00736858855616
 30
0.0
 11
257.5747844708676
 21
99.00736858855616
 31
0.0
  0
LINE
  5
1A8
330
CD
100
AcDbEntity
  8
Title (ISO)
100
AcDbLine
 10
278.5747844708676
 20
85.83581292078873
 30
0.0
 11
278.5747844708676
 21
72.90318968847015
 31
0.0
  0
LINE
  5
1A9
330
CD
100
AcDbEntity
  8
Title (ISO)
100
AcDbLine
 10
246.5747844708676
 20
94.90318968847011
 30
0.0
 11
246.5747844708677
 21
60.90318968847011
 31
0.0
  0
LINE
  5
1AA
330
CD
100
AcDbEntity
  8
Title (ISO)
100
AcDbLine
 10
266.8747844708676
 20
94.90318968847011
 30
0.0
 11
266.8747844708676
 21
85.90318968847013
 31
0.0
  0
LINE
  5
1AB
330
CD
100
AcDbEntity
  8
Title (ISO)
100
AcDbLine
 10
230.5747844708676
 20
85.90318968847009
 30
0.0
 11
230.5747844708676
 21
94.90318968847008
 31
0.0
  0
LINE
  5
1AC
330
CD
100
AcDbEntity
  8
Title (ISO)
100
AcDbLine
 10
217.5747844708677
 20
85.90318968847009
 30
0.0
 11
217.5747844708677
 21
94.90318968847008
 31
0.0
  0
LINE
  5
1AD
330
CD
100
AcDbEntity
  8
Title (ISO)
100
AcDbLine
 10
197.5747844708677
 20
85.90318968847006
 30
0.0
 11
197.5747844708677
 21
94.90318968847008
 31
0.0
  0
LINE
  5
1AE
330
CD
100
AcDbEntity
  8
Title (ISO)
100
AcDbLine
 10
160.5747844708676
 20
85.90318968847006
 30
0.0
 11
160.5747844708676
 21
94.90318968847006
 31
0.0
  0
LINE
  5
1AF
330
CD
100
AcDbEntity
  8
Title (ISO)
100
AcDbLine
 10
141.5747844708677
 20
85.90318968847004
 30
0.0
 11
141.5747844708677
 21
94.90318968847004
 31
0.0
  0
LINE
  5
1B0
330
CD
100
AcDbEntity
  8
Centerline (ISO)
100
AcDbLine
 10
249.8747844708677
 20
77.90318968847015
 30
0.0
 11
259.2747844708677
 21
77.90318968847015
 31
0.0
  0
CIRCLE
  5
1B1
330
CD
100
AcDbEntity
  8
Title (ISO)
100
AcDbCircle
 10
254.5747844708677
 20
77.90318968847015
 30
0.0
 40
2.0
  0
CIRCLE
  5
1B2
330
CD
100
AcDbEntity
  8
Title (ISO)
100
AcDbCircle
 10
254.5747844708677
 20
77.90318968847015
 30
0.0
 40
3.75
  0
LINE
  5
1B3
330
CD
100
AcDbEntity
  8
Title (ISO)
100
AcDbLine
 10
262.5193702971558
 20
79.90318968847012
 30
0.0
 11
262.5193702971558
 21
75.90318968847014
 31
0.0
  0
LINE
  5
1B4
330
CD
100
AcDbEntity
  8
Title (ISO)
100
AcDbLine
 10
262.5193702971558
 20
75.90318968847014
 30
0.0
 11
272.5193702971558
 21
74.15318968847015
 31
0.0
  0
LINE
  5
1B5
330
CD
100
AcDbEntity
  8
Title (ISO)
100
AcDbLine
 10
272.5193702971558
 20
81.65318968847016
 30
0.0
 11
262.5193702971558
 21
79.90318968847012
 31
0.0
  0
LINE
  5
1B6
330
CD
100
AcDbEntity
  8
Title (ISO)
100
AcDbLine
 10
272.5193702971558
 20
74.15318968847015
 30
0.0
 11
272.5193702971558
 21
81.65318968847016
 31
0.0
  0
LINE
  5
1B7
330
CD
100
AcDbEntity
  8
Centerline (ISO)
100
AcDbLine
 10
254.5747844708677
 20
73.20318968847011
 30
0.0
 11
254.5747844708677
 21
82.60318968847014
 31
0.0
  0
LINE
  5
1B8
330
CD
100
AcDbEntity
  8
Centerline (ISO)
100
AcDbLine
 10
275.0193702971558
 20
77.90318968847015
 30
0.0
 11
260.0193702971558
 21
77.90318968847015
 31
0.0
  0
MTEXT
  5
1B9
330
CD
100
AcDbEntity
  8
Title (ISO)
100
AcDbMText
 10
248.0747844708677
 20
83.75318968847009
 30
0.0
 40
1.500000059604644
 41
27.33429225253474
 71
     4
 72
     1
  1
\fISOCPEUR|b0|i0;\H1.5000;THIRD ANGLE PROJECTION
  7
Note Text (ISO)
 73
     1
 44
1.0
1001
ACAD
1000
MTEXTBEGIN
1070
    73
1070
     1
1070
    44
1040
1.0
1070
    74
1070
     0
1000
MTEXTEND
  0
TEXT
  5
1BC
330
CD
100
AcDbEntity
  8
Title (ISO)
100
AcDbText
 10
232.0747844708677
 20
91.90318965866779
 30
0.0
 40
1.500000059604644
  1
DRAWN BY:
  7
Text Style44
 11
232.0747844708677
 21
92.65318968847012
 31
0.0
100
AcDbText
 73
     2
  0
TEXT
  5
1BF
330
CD
100
AcDbEntity
  8
Title (ISO)
100
AcDbText
 10
268.3747844708677
 20
91.90318965866779
 30
0.0
 40
1.500000059604644
  1
DATE:
  7
Text Style44
 11
268.3747844708677
 21
92.65318968847012
 31
0.0
100
AcDbText
 73
     2
  0
TEXT
  5
1C0
330
CD
100
AcDbEntity
  8
Title (ISO)
100
AcDbText
 10
103.0747844708677
 20
91.90318965866769
 30
0.0
 40
1.500000059604644
  1
GEN.
  7
Text Style44
 11
103.0747844708677
 21
92.65318968847001
 31
0.0
100
AcDbText
 73
     2
  0
TEXT
  5
1C1
330
CD
100
AcDbEntity
  8
Title (ISO)
100
AcDbText
 10
121.5747844708676
 20
91.9031896586677
 30
0.0
 40
1.500000059604644
  1
ANGLE
  7
Text Style44
 11
121.5747844708676
 21
92.65318968847003
 31
0.0
100
AcDbText
 73
     2
  0
TEXT
  5
1C2
330
CD
100
AcDbEntity
  8
Title (ISO)
100
AcDbText
 10
103.0747844708677
 20
88.75318971231189
 30
0.0
 40
1.500000059604644
  1
TOL.:
  7
Text Style44
 11
103.0747844708677
 21
88.15318968847003
 31
0.0
100
AcDbText
 73
     1
  0
TEXT
  5
1C3
330
CD
100
AcDbEntity
  8
Title (ISO)
100
AcDbText
 10
143.0747844708676
 20
91.9031896586677
 30
0.0
 40
1.500000059604644
  1
DIMENSIONS IN:
  7
Text Style44
 11
143.0747844708676
 21
92.65318968847003
 31
0.0
100
AcDbText
 73
     2
  0
TEXT
  5
1C4
330
CD
100
AcDbEntity
  8
Title (ISO)
100
AcDbText
 10
280.0747844708676
 20
83.00318965866784
 30
0.0
 40
1.500000059604644
  1
SIZE
  7
Text Style44
 11
280.0747844708676
 21
83.75318968847016
 31
0.0
100
AcDbText
 73
     2
  0
TEXT
  5
1C5
330
CD
100
AcDbEntity
  8
Title (ISO)
100
AcDbText
 10
219.0747844708677
 20
91.90318965866778
 30
0.0
 40
1.500000059604644
  1
SCALE:
  7
Text Style44
 11
219.0747844708677
 21
92.6531896884701
 31
0.0
100
AcDbText
 73
     2
  0
TEXT
  5
1C7
330
CD
100
AcDbEntity
  8
Title (ISO)
100
AcDbText
 10
143.0747844708676
 20
88.95318970039099
 30
0.0
 40
2.000000029802321
  1
mm
  7
Text Style61
 11
143.0747844708676
 21
88.15318968847007
 31
0.0
100
AcDbText
 73
     1
  0
TEXT
  5
1C8
330
CD
100
AcDbEntity
  8
Title (ISO)
100
AcDbText
 10
248.0747844708677
 20
91.90318965866779
 30
0.0
 40
1.500000059604644
  1
CHECKED:
  7
Text Style44
 11
248.0747844708677
 21
92.65318968847012
 31
0.0
100
AcDbText
 73
     2
  0
TEXT
  5
1C9
330
CD
100
AcDbEntity
  8
Title (ISO)
100
AcDbText
 10
259.0747844708675
 20
96.20527910871082
 30
0.0
 40
1.500000059604644
  1
DATE
  7
Text Style44
 11
259.0747844708675
 21
96.95527913851314
 31
0.0
100
AcDbText
 73
     2
  0
TEXT
  5
1CA
330
CD
100
AcDbEntity
  8
Title (ISO)
100
AcDbText
 10
280.0747844708676
 20
96.20527910871082
 30
0.0
 40
1.500000059604644
  1
NAME
  7
Text Style44
 11
280.0747844708676
 21
96.95527913851314
 31
0.0
100
AcDbText
 73
     2
  0
TEXT
  5
1CB
330
CD
100
AcDbEntity
  8
Title (ISO)
100
AcDbText
 10
110.5747844708677
 20
91.9031896586677
 30
0.0
 40
1.500000059604644
  1
LINEAR
  7
Text Style44
 11
110.5747844708677
 21
92.65318968847003
 31
0.0
100
AcDbText
 73
     2
  0
TEXT
  5
1CC
330
CD
100
AcDbEntity
  8
Title (ISO)
100
AcDbText
 10
290.3247845006699
 20
96.40318972125367
 30
0.0
 40
1.500000059604644
  1
REVISION
 50
90.00000250447815
  7
Text Style44
 11
289.5747844708676
 21
96.40318968847012
 31
0.0
100
AcDbText
 73
     2
  0
TEXT
  5
1CD
330
CD
100
AcDbEntity
  8
Title (ISO)
100
AcDbText
 10
130.8747844708676
 20
91.9031896586677
 30
0.0
 40
1.500000059604644
  1
HOLES
  7
Text Style44
 11
130.8747844708676
 21
92.65318968847003
 31
0.0
100
AcDbText
 73
     2
  0
MTEXT
  5
1CE
330
CD
100
AcDbEntity
  8
Title (ISO)
100
AcDbMText
 10
162.0747844708676
 20
92.65318968847006
 30
0.0
 40
1.500000059604644
 41
0.0
 71
     4
 72
     1
  1
\fISOCPEUR|b0|i0;\H1.5000;FILENAME:
  7
Note Text (ISO)
 73
     1
 44
1.0
1001
ACAD
1000
MTEXTBEGIN
1070
    73
1070
     1
1070
    44
1040
1.0
1070
    74
1070
     0
1000
MTEXTEND
  0
MTEXT
  5
1CF
330
CD
100
AcDbEntity
  8
Title (ISO)
100
AcDbMText
 10
199.0747844708675
 20
92.65318968847006
 30
0.0
 40
1.500000059604644
 41
0.0
 71
     4
 72
     1
  1
\fISOCPEUR|b0|i0;\H1.5000;SHEET
  7
Note Text (ISO)
 73
     1
 44
1.0
1001
ACAD
1000
MTEXTBEGIN
1070
    73
1070
     1
1070
    44
1040
1.0
1070
    74
1070
     0
1000
MTEXTEND
  0
MTEXT
  5
1D0
330
CD
100
AcDbEntity
  8
Title (ISO)
100
AcDbMText
 10
211.0747844708677
 20
92.65318968847006
 30
0.0
 40
1.500000059604644
 41
0.0
 71
     4
 72
     1
  1
\fISOCPEUR|b0|i0;\H1.5000;OF
  7
Note Text (ISO)
 73
     1
 44
1.0
1001
ACAD
1000
MTEXTBEGIN
1070
    73
1070
     1
1070
    44
1040
1.0
1070
    74
1070
     0
1000
MTEXTEND
  0
MTEXT
  5
1D1
330
CD
100
AcDbEntity
  8
Title (ISO)
100
AcDbMText
 10
122.5747844708677
 20
64.40318968847003
 30
0.0
 40
2.000000029802321
 41
0.0
 71
     4
 72
     1
  1
\fISOCPEUR|b0|i0;\W0.87;\H2.0000;REPRODUCTION IN \fISOCPEUR|b0|i0;\W0.87;\H2.0000;ANY FORM WHATSOEVER, IS NOT PERMITTED WITHOUT THE WRITTEN PERMISSION OF THE OWNER
  7
Note Text (ISO)
 73
     1
 44
1.0
1001
ACAD
1000
MTEXTBEGIN
1070
    73
1070
     1
1070
    44
1040
1.0
1070
    74
1070
     0
1000
MTEXTEND
  0
MTEXT
  5
1D2
330
CD
100
AcDbEntity
  8
Title (ISO)
100
AcDbMText
 10
122.5747844708677
 20
69.40318968847003
 30
0.0
 40
2.000000029802321
 41
0.0
 71
     4
 72
     1
  1
\fISOCPEUR|b0|i0;\W0.87;\H2.0000;PROPERTY OF NIEAF-SMITT BV  UTRECHT - THE NETHERLANDS.  DISCLOSURE TO THIRD PARTIES OR COPYING/
  7
Note Text (ISO)
 73
     1
 44
1.0
1001
ACAD
1000
MTEXTBEGIN
1070
    73
1070
     1
1070
    44
1040
1.0
1070
    74
1070
     0
1000
MTEXTEND
  0
MTEXT
  5
1D3
102
{ACAD_XDICTIONARY
360
54F
102
}
330
CD
100
AcDbEntity
  8
Title (ISO)
100
AcDbMText
 10
110.5747844708677
 20
88.45318968847003
 30
0.0
 40
2.000000029802321
 41
0.0
 71
     7
 72
     1
  1
\fISOCPEUR|b0|i0;\H2.0000;\U+00B1
  7
Note Text (ISO)
 73
     1
 44
1.0
1001
ACAD
1000
MTEXTBEGIN
1070
    73
1070
     1
1070
    44
1040
1.0
1070
    74
1070
     0
1000
MTEXTEND
  0
MTEXT
  5
1D4
102
{ACAD_XDICTIONARY
360
551
102
}
330
CD
100
AcDbEntity
  8
Title (ISO)
100
AcDbMText
 10
121.5747844708677
 20
88.45318968847003
 30
0.0
 40
2.000000029802321
 41
0.0
 71
     7
 72
     1
  1
\fISOCPEUR|b0|i0;\H2.0000;\U+00B1
  7
Note Text (ISO)
 73
     1
 44
1.0
1001
ACAD
1000
MTEXTBEGIN
1070
    73
1070
     1
1070
    44
1040
1.0
1070
    74
1070
     0
1000
MTEXTEND
  0
MTEXT
  5
1D5
102
{ACAD_XDICTIONARY
360
553
102
}
330
CD
100
AcDbEntity
  8
Title (ISO)
100
AcDbMText
 10
130.8747844708677
 20
88.45318968847003
 30
0.0
 40
2.000000029802321
 41
0.0
 71
     7
 72
     1
  1
\fISOCPEUR|b0|i0;\H2.0000;\U+00B1
  7
Note Text (ISO)
 73
     1
 44
1.0
1001
ACAD
1000
MTEXTBEGIN
1070
    73
1070
     1
1070
    44
1040
1.0
1070
    74
1070
     0
1000
MTEXTEND
  0
ATTDEF
  5
1D7
102
{ACAD_XDICTIONARY
360
45B
102
}
330
CD
100
AcDbEntity
  8
Title (ISO)
100
AcDbText
 10
282.2747844589467
 20
77.25318968847012
 30
0.0
 40
3.000000119209288
  1
A4
  7
Text Style72
100
AcDbAttributeDefinition
  3
Sheet Size
  2
Sheet_Size_001
 70
     0
  0
ATTDEF
  5
1D9
102
{ACAD_XDICTIONARY
360
45E
102
}
330
CD
100
AcDbEntity
  8
Title (ISO)
100
AcDbText
 10
219.0747844708677
 20
88.95318970039099
 30
0.0
 40
2.000000029802321
  1

  7
Text Style61
 11
219.0747844708677
 21
88.15318968847007
 31
0.0
100
AcDbAttributeDefinition
  3
<SCHAAL>
  2
<SCHAAL>
 70
     0
 74
     1
  0
ATTDEF
  5
1DA
102
{ACAD_XDICTIONARY
360
461
102
}
330
CD
100
AcDbEntity
  8
Title (ISO)
100
AcDbText
 10
211.3747844678874
 20
88.15318968847009
 30
0.0
 40
2.000000029802321
  1
1
  7
Text Style61
100
AcDbAttributeDefinition
  3
Number of sheets
  2
Number_of_sheets_001
 70
     0
  0
ATTDEF
  5
1DB
102
{ACAD_XDICTIONARY
360
464
102
}
330
CD
100
AcDbEntity
  8
Title (ISO)
100
AcDbText
 10
199.3747844678874
 20
88.15318968847009
 30
0.0
 40
2.000000029802321
  1
1
  7
Text Style61
100
AcDbAttributeDefinition
  3
Sheet number
  2
Sheet_number_001
 70
     0
  0
ATTDEF
  5
1DC
102
{ACAD_XDICTIONARY
360
467
102
}
330
CD
100
AcDbEntity
  8
Title (ISO)
100
AcDbText
 10
111.9747844708677
 20
88.95318970039099
 30
0.0
 40
2.000000029802321
  1

  7
Text Style61
 11
111.9747844708677
 21
88.15318968847007
 31
0.0
100
AcDbAttributeDefinition
  3
<Tol lineair>
  2
<Tol_lineair>
 70
     0
 74
     1
  0
ATTDEF
  5
1DD
102
{ACAD_XDICTIONARY
360
46A
102
}
330
CD
100
AcDbEntity
  8
Title (ISO)
100
AcDbText
 10
122.9747844708677
 20
88.95318970039097
 30
0.0
 40
2.000000029802321
  1

  7
Text Style61
 11
122.9747844708677
 21
88.15318968847003
 31
0.0
100
AcDbAttributeDefinition
  3
<Tol Hoek>
  2
<Tol_Hoek>
 70
     0
 74
     1
  0
ATTDEF
  5
1DE
102
{ACAD_XDICTIONARY
360
46D
102
}
330
CD
100
AcDbEntity
  8
Title (ISO)
100
AcDbText
 10
132.2747844708676
 20
88.95318970039097
 30
0.0
 40
2.000000029802321
  1

  7
Text Style61
 11
132.2747844708676
 21
88.15318968847003
 31
0.0
100
AcDbAttributeDefinition
  3
<Tol Gaten>
  2
<Tol_Gaten>
 70
     0
 74
     1
  0
ATTDEF
  5
1DF
102
{ACAD_XDICTIONARY
360
470
102
}
330
CD
100
AcDbEntity
  8
Title (ISO)
100
AcDbText
 10
259.0747844708675
 20
100.3094580087967
 30
0.0
 40
1.500000059604644
  1

  7
Text Style44
 11
259.0747844708675
 21
101.0594580385991
 31
0.0
100
AcDbAttributeDefinition
  3
<Revisie1 datum>
  2
<Revisie1_datum>
 70
     0
 74
     2
  0
ATTDEF
  5
1E0
102
{ACAD_XDICTIONARY
360
473
102
}
330
CD
100
AcDbEntity
  8
Title (ISO)
100
AcDbText
 10
259.0747844708675
 20
104.4136369088829
 30
0.0
 40
1.500000059604644
  1

  7
Text Style44
 11
259.0747844708675
 21
105.1636369386852
 31
0.0
100
AcDbAttributeDefinition
  3
<Revisie2 datum>
  2
<Revisie2_datum>
 70
     0
 74
     2
  0
ATTDEF
  5
1E1
102
{ACAD_XDICTIONARY
360
476
102
}
330
CD
100
AcDbEntity
  8
Title (ISO)
100
AcDbText
 10
259.0747844708675
 20
108.5178158089689
 30
0.0
 40
1.500000059604644
  1

  7
Text Style44
 11
259.0747844708675
 21
109.2678158387712
 31
0.0
100
AcDbAttributeDefinition
  3
<Revisie3 datum>
  2
<Revisie3_datum>
 70
     0
 74
     2
  0
ATTDEF
  5
1E2
102
{ACAD_XDICTIONARY
360
479
102
}
330
CD
100
AcDbEntity
  8
Title (ISO)
100
AcDbText
 10
280.0747844708676
 20
100.3094580087967
 30
0.0
 40
1.500000059604644
  1

  7
Text Style44
 11
280.0747844708676
 21
101.0594580385991
 31
0.0
100
AcDbAttributeDefinition
  3
<Revisie1 Naam>
  2
<Revisie1_Naam>
 70
     0
 74
     2
  0
ATTDEF
  5
1E3
102
{ACAD_XDICTIONARY
360
47C
102
}
330
CD
100
AcDbEntity
  8
Title (ISO)
100
AcDbText
 10
280.0747844708676
 20
104.4136369088829
 30
0.0
 40
1.500000059604644
  1

  7
Text Style44
 11
280.0747844708676
 21
105.1636369386852
 31
0.0
100
AcDbAttributeDefinition
  3
<Revisie2 Naam>
  2
<Revisie2_Naam>
 70
     0
 74
     2
  0
ATTDEF
  5
1E4
102
{ACAD_XDICTIONARY
360
47F
102
}
330
CD
100
AcDbEntity
  8
Title (ISO)
100
AcDbText
 10
280.0747844708675
 20
108.5178158089689
 30
0.0
 40
1.500000059604644
  1

  7
Text Style44
 11
280.0747844708675
 21
109.2678158387712
 31
0.0
100
AcDbAttributeDefinition
  3
<Revisie3 Naam>
  2
<Revisie3_Naam>
 70
     0
 74
     2
  0
ATTDEF
  5
1E5
102
{ACAD_XDICTIONARY
360
482
102
}
330
CD
100
AcDbEntity
  8
Title (ISO)
100
AcDbText
 10
268.3747844708677
 20
88.95318970039104
 30
0.0
 40
2.000000029802321
  1

  7
Text Style61
 11
268.3747844708677
 21
88.15318968847012
 31
0.0
100
AcDbAttributeDefinition
  3
<Datum>
  2
<Datum>
 70
     0
 74
     1
  0
ATTDEF
  5
1E7
102
{ACAD_XDICTIONARY
360
485
102
}
330
CD
100
AcDbEntity
  8
Title (ISO)
100
AcDbText
 10
104.0747844708677
 20
76.40318956926079
 30
0.0
 40
6.000000238418579
  1

  7
Text Style73
 11
104.0747844708677
 21
79.40318968847008
 31
0.0
100
AcDbAttributeDefinition
  3
<Omschrijving>
  2
<Omschrijving>
 70
     0
 74
     2
  0
ATTDEF
  5
1E8
102
{ACAD_XDICTIONARY
360
488
102
}
330
CD
100
AcDbEntity
  8
Title (ISO)
100
AcDbText
 10
248.3747844708677
 20
63.90318956926083
 30
0.0
 40
6.000000238418579
  1

  7
Text Style73
 11
248.3747844708677
 21
66.90318968847012
 31
0.0
100
AcDbAttributeDefinition
  3
<Art. Nummer>
  2
<Art._Nummer>
 70
     0
 74
     2
  0
ATTDEF
  5
1E9
102
{ACAD_XDICTIONARY
360
48B
102
}
330
CD
100
AcDbEntity
  8
Title (ISO)
100
AcDbText
 10
232.0747844708677
 20
88.95318970039104
 30
0.0
 40
2.000000029802321
  1

  7
Text Style61
 11
232.0747844708677
 21
88.15318968847012
 31
0.0
100
AcDbAttributeDefinition
  3
<Getekend door>
  2
<Getekend_door>
 70
     0
 74
     1
  0
ATTDEF
  5
1EA
102
{ACAD_XDICTIONARY
360
48E
102
}
330
CD
100
AcDbEntity
  8
Title (ISO)
100
AcDbText
 10
248.0747844708677
 20
88.95318970039104
 30
0.0
 40
2.000000029802321
  1

  7
Text Style61
 11
248.0747844708677
 21
88.15318968847012
 31
0.0
100
AcDbAttributeDefinition
  3
<Gecontr. door>
  2
<Gecontr._door>
 70
     0
 74
     1
  0
ATTDEF
  5
1EC
102
{ACAD_XDICTIONARY
360
491
102
}
330
CD
100
AcDbEntity
  8
Title (ISO)
100
AcDbText
 10
101.9697844741459
 20
58.21818967863525
 30
0.0
 40
1.049999967217444
  1
I:\TI\Bibliotheek\Inventor\Relais\TDBE\TDBE variable.ipt
  7
Text Style81
100
AcDbAttributeDefinition
  3
FILENAME AND PATH
  2
FILENAME_AND_PATH_001
 70
     0
  0
ATTDEF
  5
1ED
102
{ACAD_XDICTIONARY
360
494
102
}
330
CD
100
AcDbEntity
  8
Title (ISO)
100
AcDbText
 10
161.8747844678873
 20
88.15688778759568
 30
0.0
 40
2.000000029802321
  1
TDBE variable
  7
Text Style61
100
AcDbAttributeDefinition
  3
PART NUMBER
  2
PART_NUMBER_001
 70
     0
  0
ENDBLK
  5
CF
330
CD
100
AcDbEntity
  8
0
100
AcDbBlockEnd
  0
ENDSEC
  0
SECTION
  2
ENTITIES
  0
LINE
  5
207
330
6C
100
AcDbEntity
  8
Visible (ISO)
100
AcDbLine
 10
53.81899207012403
 20
174.2715572235941
 30
0.0
 11
53.62411376884478
 21
174.271557223594
 31
0.0
  0
LINE
  5
208
330
6C
100
AcDbEntity
  8
Visible (ISO)
100
AcDbLine
 10
53.81899207012403
 20
174.071557223594
 30
0.0
 11
53.81899207012403
 21
174.2715572235941
 31
0.0
  0
LINE
  5
209
330
6C
100
AcDbEntity
  8
Visible (ISO)
100
AcDbLine
 10
53.62411376884478
 20
174.0715572235941
 30
0.0
 11
53.62411376884478
 21
174.2715572235941
 31
0.0
  0
LINE
  5
20A
330
6C
100
AcDbEntity
  8
Visible (ISO)
100
AcDbLine
 10
53.62411376884478
 20
174.2715572235941
 30
0.0
 11
53.37703592257998
 21
174.2715572235943
 31
0.0
  0
LINE
  5
20B
330
6C
100
AcDbEntity
  8
Visible (ISO)
100
AcDbLine
 10
53.37703592257998
 20
174.0715572235943
 30
0.0
 11
53.37703592257998
 21
174.2715572235943
 31
0.0
  0
LINE
  5
20C
330
6C
100
AcDbEntity
  8
Visible (ISO)
100
AcDbLine
 10
53.37703592257998
 20
174.2715572235943
 30
0.0
 11
52.90249271105889
 21
174.271557223594
 31
0.0
  0
LINE
  5
20D
330
6C
100
AcDbEntity
  8
Visible (ISO)
100
AcDbLine
 10
52.90249271105889
 20
174.071557223594
 30
0.0
 11
52.90249271105889
 21
174.271557223594
 31
0.0
  0
LINE
  5
20E
330
6C
100
AcDbEntity
  8
Visible (ISO)
100
AcDbLine
 10
52.90249271105889
 20
174.271557223594
 30
0.0
 11
51.52610102206367
 21
174.2715572235939
 31
0.0
  0
LINE
  5
20F
330
6C
100
AcDbEntity
  8
Visible (ISO)
100
AcDbLine
 10
51.52610102206367
 20
174.0715572235939
 30
0.0
 11
51.52610102206367
 21
174.2715572235939
 31
0.0
  0
LINE
  5
210
330
6C
100
AcDbEntity
  8
Visible (ISO)
100
AcDbLine
 10
54.00575044218334
 20
174.071557223594
 30
0.0
 11
54.00575044218334
 21
174.2715572235939
 31
0.0
  0
LINE
  5
211
330
6C
100
AcDbEntity
  8
Visible (ISO)
100
AcDbLine
 10
54.00575044218334
 20
174.2715572235939
 30
0.0
 11
53.81899207012403
 21
174.2715572235941
 31
0.0
  0
SPLINE
  5
212
330
6C
100
AcDbEntity
  8
Visible (ISO)
100
AcDbSpline
210
0.0
220
0.0
230
1.0
 70
    24
 71
     2
 72
     6
 73
     3
 74
     0
 42
0.0000000001
 43
0.0000000001
 40
1.942839885074266
 40
1.942839885074266
 40
1.942839885074266
 40
2.0
 40
2.0
 40
2.0
 10
54.48861522714665
 20
174.2715572235933
 30
0.0
 10
54.48861522714665
 20
174.2715572235933
 30
0.0
 10
54.48763343369309
 20
174.2715572235933
 30
0.0
  0
SPLINE
  5
213
330
6C
100
AcDbEntity
  8
Visible (ISO)
100
AcDbSpline
210
0.0
220
0.0
230
1.0
 70
    24
 71
     2
 72
     7
 73
     4
 74
     0
 42
0.0000000001
 43
0.0000000001
 40
0.0
 40
0.0
 40
0.0
 40
1.0
 40
1.633844161419474
 40
1.633844161419474
 40
1.633844161419474
 10
54.48763343369309
 20
174.2715572235933
 30
0.0
 10
54.47427416855631
 20
174.2715572235934
 30
0.0
 10
54.18722777022087
 20
174.2715572235934
 30
0.0
 10
54.00575044218334
 20
174.2715572235934
 30
0.0
  0
LINE
  5
214
330
6C
100
AcDbEntity
  8
Visible (ISO)
100
AcDbLine
 10
48.06406062331756
 20
174.0715572235941
 30
0.0
 11
48.06406062331756
 21
174.2715572235941
 31
0.0
  0
LINE
  5
215
330
6C
100
AcDbEntity
  8
Visible (ISO)
100
AcDbLine
 10
48.06406062331756
 20
174.2715572235941
 30
0.0
 11
47.83855625595943
 21
174.2715572235943
 31
0.0
  0
LINE
  5
216
330
6C
100
AcDbEntity
  8
Visible (ISO)
100
AcDbLine
 10
47.83855625595943
 20
174.0715572235943
 30
0.0
 11
47.83855625595943
 21
174.2715572235943
 31
0.0
  0
LINE
  5
217
330
6C
100
AcDbEntity
  8
Visible (ISO)
100
AcDbLine
 10
46.23488468428855
 20
174.2715572235931
 30
0.0
 11
47.83855625595939
 21
174.2715572235943
 31
0.0
  0
LINE
  5
218
330
6C
100
AcDbEntity
  8
Visible (ISO)
100
AcDbLine
 10
46.23488468428855
 20
174.2715572235926
 30
0.0
 11
46.04936588551843
 21
174.2715572235926
 31
0.0
  0
LINE
  5
219
330
6C
100
AcDbEntity
  8
Visible (ISO)
100
AcDbLine
 10
46.04936588551843
 20
174.0715572235926
 30
0.0
 11
46.04936588551843
 21
174.2715572235926
 31
0.0
  0
LINE
  5
21A
330
6C
100
AcDbEntity
  8
Visible (ISO)
100
AcDbLine
 10
51.52610102206367
 20
174.2715572235924
 30
0.0
 11
50.99149426406728
 21
174.2715572235923
 31
0.0
  0
LINE
  5
21B
330
6C
100
AcDbEntity
  8
Visible (ISO)
100
AcDbLine
 10
50.99149426406728
 20
174.0715572235923
 30
0.0
 11
50.99149426406728
 21
174.2715572235923
 31
0.0
  0
LINE
  5
21C
330
6C
100
AcDbEntity
  8
Visible (ISO)
100
AcDbLine
 10
73.09352901754376
 20
174.2715572235937
 30
0.0
 11
72.9830424857536
 21
174.2715572235937
 31
0.0
  0
LINE
  5
21D
330
6C
100
AcDbEntity
  8
Visible (ISO)
100
AcDbLine
 10
73.09352901754376
 20
174.0715572235936
 30
0.0
 11
73.09352901754376
 21
174.2715572235937
 31
0.0
  0
LINE
  5
21E
330
6C
100
AcDbEntity
  8
Visible (ISO)
100
AcDbLine
 10
72.9830424857536
 20
174.0715572235938
 30
0.0
 11
72.9830424857536
 21
174.2715572235938
 31
0.0
  0
LINE
  5
21F
330
6C
100
AcDbEntity
  8
Visible (ISO)
100
AcDbLine
 10
72.9830424857536
 20
174.2715572235938
 30
0.0
 11
72.8429613472339
 21
174.2715572235939
 31
0.0
  0
LINE
  5
220
330
6C
100
AcDbEntity
  8
Visible (ISO)
100
AcDbLine
 10
72.8429613472339
 20
174.071557223594
 30
0.0
 11
72.8429613472339
 21
174.2715572235939
 31
0.0
  0
LINE
  5
221
330
6C
100
AcDbEntity
  8
Visible (ISO)
100
AcDbLine
 10
72.8429613472339
 20
174.2715572235939
 30
0.0
 11
72.17963585281495
 21
174.2715572235937
 31
0.0
  0
LINE
  5
222
330
6C
100
AcDbEntity
  8
Visible (ISO)
100
AcDbLine
 10
72.17963585281495
 20
174.0715572235937
 30
0.0
 11
72.17963585281495
 21
174.2715572235937
 31
0.0
  0
LINE
  5
223
330
6C
100
AcDbEntity
  8
Visible (ISO)
100
AcDbLine
 10
72.17963585281495
 20
174.2715572235937
 30
0.0
 11
70.74584849504133
 21
174.2715572235937
 31
0.0
  0
LINE
  5
224
330
6C
100
AcDbEntity
  8
Visible (ISO)
100
AcDbLine
 10
70.74584849504133
 20
174.0715572235937
 30
0.0
 11
70.74584849504133
 21
174.2715572235937
 31
0.0
  0
LINE
  5
225
330
6C
100
AcDbEntity
  8
Visible (ISO)
100
AcDbLine
 10
73.19941194384269
 20
174.0715572235935
 30
0.0
 11
73.19941194384269
 21
174.2715572235935
 31
0.0
  0
LINE
  5
226
330
6C
100
AcDbEntity
  8
Visible (ISO)
100
AcDbLine
 10
73.19941194384269
 20
174.2715572235935
 30
0.0
 11
73.09352901754376
 21
174.2715572235937
 31
0.0
  0
SPLINE
  5
227
330
6C
100
AcDbEntity
  8
Visible (ISO)
100
AcDbSpline
210
0.0
220
0.0
230
1.0
 70
    24
 71
     2
 72
     6
 73
     3
 74
     0
 42
0.0000000001
 43
0.0000000001
 40
0.225474581737341
 40
0.225474581737341
 40
0.225474581737341
 40
0.588565588195833
 40
0.588565588195833
 40
0.588565588195833
 10
73.22346027331422
 20
174.2715572235929
 30
0.0
 10
73.2234602733142
 20
174.2715572235929
 30
0.0
 10
73.19941194384269
 20
174.2715572235929
 30
0.0
  0
LINE
  5
228
330
6C
100
AcDbEntity
  8
Visible (ISO)
100
AcDbLine
 10
67.63398607732868
 20
174.0715572235944
 30
0.0
 11
67.63398607732868
 21
174.2715572235943
 31
0.0
  0
LINE
  5
229
330
6C
100
AcDbEntity
  8
Visible (ISO)
100
AcDbLine
 10
67.63398607732868
 20
174.2715572235943
 30
0.0
 11
67.50248597180837
 21
174.2715572235945
 31
0.0
  0
LINE
  5
22A
330
6C
100
AcDbEntity
  8
Visible (ISO)
100
AcDbLine
 10
67.50248597180837
 20
174.0715572235945
 30
0.0
 11
67.50248597180837
 21
174.2715572235945
 31
0.0
  0
LINE
  5
22B
330
6C
100
AcDbEntity
  8
Visible (ISO)
100
AcDbLine
 10
65.03488468428843
 20
174.2715572235932
 30
0.0
 11
67.50248597180835
 21
174.2715572235945
 31
0.0
  0
LINE
  5
22C
330
6C
100
AcDbEntity
  8
Visible (ISO)
100
AcDbLine
 10
65.03488468428843
 20
174.2715572235931
 30
0.0
 11
64.64834388392354
 21
174.2715572235931
 31
0.0
  0
LINE
  5
22D
330
6C
100
AcDbEntity
  8
Visible (ISO)
100
AcDbLine
 10
64.64834388392354
 20
174.0715572235931
 30
0.0
 11
64.64834388392354
 21
174.2715572235931
 31
0.0
  0
LINE
  5
22E
330
6C
100
AcDbEntity
  8
Visible (ISO)
100
AcDbLine
 10
70.3229653636578
 20
174.2715572235915
 30
0.0
 11
70.20804032817948
 21
174.2715572235915
 31
0.0
  0
LINE
  5
22F
330
6C
100
AcDbEntity
  8
Visible (ISO)
100
AcDbLine
 10
70.3229653636578
 20
174.0715572235915
 30
0.0
 11
70.3229653636578
 21
174.2715572235915
 31
0.0
  0
LINE
  5
230
330
6C
100
AcDbEntity
  8
Visible (ISO)
100
AcDbLine
 10
70.20804032817948
 20
174.0715572235921
 30
0.0
 11
70.20804032817948
 21
174.2715572235922
 31
0.0
  0
LINE
  5
231
330
6C
100
AcDbEntity
  8
Visible (ISO)
100
AcDbLine
 10
70.20804032817948
 20
174.2715572235922
 30
0.0
 11
70.00943020681582
 21
174.2715572235923
 31
0.0
  0
LINE
  5
232
330
6C
100
AcDbEntity
  8
Visible (ISO)
100
AcDbLine
 10
70.00943020681582
 20
174.0715572235924
 30
0.0
 11
70.00943020681582
 21
174.2715572235923
 31
0.0
  0
LINE
  5
233
330
6C
100
AcDbEntity
  8
Visible (ISO)
100
AcDbLine
 10
70.00943020681582
 20
174.2715572235923
 30
0.0
 11
69.19969010597964
 21
174.2715572235922
 31
0.0
  0
LINE
  5
234
330
6C
100
AcDbEntity
  8
Visible (ISO)
100
AcDbLine
 10
69.19969010597964
 20
174.0715572235921
 30
0.0
 11
69.19969010597964
 21
174.2715572235922
 31
0.0
  0
SPLINE
  5
235
330
6C
100
AcDbEntity
  8
Visible (ISO)
100
AcDbSpline
210
0.0
220
0.0
230
1.0
 70
    24
 71
     2
 72
     6
 73
     3
 74
     0
 42
0.0000000001
 43
0.0000000001
 40
2.065477281482585
 40
2.065477281482585
 40
2.065477281482585
 40
3.0
 40
3.0
 40
3.0
 10
70.74584849504134
 20
174.2715572235926
 30
0.0
 10
70.57738049834515
 20
174.2715572235926
 30
0.0
 10
70.46452997985117
 20
174.2715572235926
 30
0.0
  0
SPLINE
  5
236
330
6C
100
AcDbEntity
  8
Visible (ISO)
100
AcDbSpline
210
0.0
220
0.0
230
1.0
 70
    24
 71
     2
 72
     6
 73
     3
 74
     0
 42
0.0000000001
 43
0.0000000001
 40
0.0
 40
0.0
 40
0.0
 40
0.9261866281671855
 40
0.9261866281671855
 40
0.9261866281671855
 10
70.46452997985117
 20
174.2715572235926
 30
0.0
 10
70.3514005440476
 20
174.2715572235925
 30
0.0
 10
70.3514005440476
 20
174.2715572235924
 30
0.0
  0
LINE
  5
237
330
6C
100
AcDbEntity
  8
Visible (ISO)
100
AcDbLine
 10
54.48861522714665
 20
174.0715572235933
 30
0.0
 11
54.48861522714665
 21
174.2715572235933
 31
0.0
  0
LINE
  5
238
330
6C
100
AcDbEntity
  8
Visible (ISO)
100
AcDbLine
 10
46.23488468428855
 20
174.0715572235932
 30
0.0
 11
46.23488468428855
 21
174.2715572235931
 31
0.0
  0
LINE
  5
239
330
6C
100
AcDbEntity
  8
Visible (ISO)
100
AcDbLine
 10
73.22346027331422
 20
174.0715572235928
 30
0.0
 11
73.22346027331422
 21
174.2715572235929
 31
0.0
  0
LINE
  5
23A
330
6C
100
AcDbEntity
  8
Visible (ISO)
100
AcDbLine
 10
65.03488468428843
 20
174.0715572235932
 30
0.0
 11
65.03488468428843
 21
174.2715572235931
 31
0.0
  0
LINE
  5
23B
330
6C
100
AcDbEntity
  8
Visible (ISO)
100
AcDbLine
 10
70.3514005440476
 20
174.0715572235924
 30
0.0
 11
70.3514005440476
 21
174.2715572235925
 31
0.0
  0
LINE
  5
23C
330
6C
100
AcDbEntity
  8
Visible (ISO)
100
AcDbLine
 10
45.01101467652079
 20
174.0715572235932
 30
0.0
 11
54.81101467652081
 21
174.0715572235932
 31
0.0
  0
LINE
  5
23D
330
6C
100
AcDbEntity
  8
Visible (ISO)
100
AcDbLine
 10
54.81101467652081
 20
174.0715572235932
 30
0.0
 11
55.37060529066946
 21
167.5803060994686
 31
0.0
  0
LINE
  5
23E
330
6C
100
AcDbEntity
  8
Visible (ISO)
100
AcDbLine
 10
45.01101467652079
 20
174.0715572235932
 30
0.0
 11
44.01101467652078
 21
162.4715572235931
 31
0.0
  0
LINE
  5
23F
330
6C
100
AcDbEntity
  8
Visible (ISO)
100
AcDbLine
 10
55.37060529066946
 20
167.5803060994686
 30
0.0
 11
55.2916298377699
 21
167.580306099469
 31
0.0
  0
SPLINE
  5
240
330
6C
100
AcDbEntity
  8
Visible (ISO)
100
AcDbSpline
210
0.0
220
0.0
230
1.0
 70
    12
 71
     2
 72
     6
 73
     3
 74
     0
 42
0.0000000001
 43
0.0000000001
 40
0.0
 40
0.0
 40
0.0
 40
0.3162926920184198
 40
0.3162926920184198
 40
0.3162926920184198
 10
55.2916298377699
 20
167.580306099469
 30
0.0
 41
1.0
 10
56.07671385569489
 20
167.2290052885173
 30
0.0
 41
1.029465258397912
 10
57.16308642920066
 20
166.4715572235926
 30
0.0
 41
1.0
  0
SPLINE
  5
241
330
6C
100
AcDbEntity
  8
Visible (ISO)
100
AcDbSpline
210
0.0
220
0.0
230
1.0
 70
    12
 71
     2
 72
     6
 73
     3
 74
     0
 42
0.0000000001
 43
0.0000000001
 40
0.0077514241142774
 40
0.0077514241142774
 40
0.0077514241142774
 40
0.3162926920184198
 40
0.3162926920184198
 40
0.3162926920184198
 10
74.17215118152856
 20
167.5623737655016
 30
0.0
 41
1.001408823846204
 10
74.66695804381584
 20
167.2109610630024
 30
0.0
 41
1.028743149666845
 10
75.3549713267724
 20
166.4715572235919
 30
0.0
 41
1.0
  0
LINE
  5
242
330
6C
100
AcDbEntity
  8
Visible (ISO)
100
AcDbLine
 10
55.37060529066945
 20
167.5803060994686
 30
0.0
 11
56.0413449248405
 21
167.1930543911239
 31
0.0
  0
LINE
  5
243
330
6C
100
AcDbEntity
  8
Visible (ISO)
100
AcDbLine
 10
57.16308642920066
 20
166.4715572235926
 30
0.0
 11
57.57705725177249
 21
162.4715572235925
 31
0.0
  0
SPLINE
  5
244
330
6C
100
AcDbEntity
  8
Visible (ISO)
100
AcDbSpline
210
0.0
220
0.0
230
1.0
 70
    12
 71
     2
 72
     6
 73
     3
 74
     0
 42
0.0000000001
 43
0.0000000001
 40
0.0
 40
0.0
 40
0.0
 40
0.4015146493086211
 40
0.4015146493086211
 40
0.4015146493086211
 10
55.73665834709146
 20
162.4715572235935
 30
0.0
 41
1.0
 10
55.55596829263969
 20
164.5479089622313
 30
0.0
 41
1.000687282483414
 10
55.38829677316535
 20
166.4715572235935
 30
0.0
 41
1.0
  0
SPLINE
  5
245
330
6C
100
AcDbEntity
  8
Visible (ISO)
100
AcDbSpline
210
0.0
220
0.0
230
1.0
 70
    12
 71
     2
 72
     6
 73
     3
 74
     0
 42
0.0000000001
 43
0.0000000001
 40
0.0
 40
0.0
 40
0.0
 40
0.1112956231040557
 40
0.1112956231040557
 40
0.1112956231040557
 10
55.38829677316535
 20
166.4715572235935
 30
0.0
 41
1.0
 10
55.3394365050888
 20
167.0321173594422
 30
0.0
 41
1.00005830706888
 10
55.2916298377699
 20
167.580306099469
 30
0.0
 41
1.0
  0
LINE
  5
246
330
6C
100
AcDbEntity
  8
Visible (ISO)
100
AcDbLine
 10
75.3549713267724
 20
166.4715572235919
 30
0.0
 11
75.73422904697075
 21
162.4715572235918
 31
0.0
  0
LINE
  5
247
330
6C
100
AcDbEntity
  8
Visible (ISO)
100
AcDbLine
 10
42.31101467652075
 20
162.471557223597
 30
0.0
 11
44.31101467652076
 21
162.4715572235979
 31
0.0
  0
LINE
  5
248
330
6C
100
AcDbEntity
  8
Visible (ISO)
100
AcDbLine
 10
74.31101467652074
 20
162.4715572235979
 30
0.0
 11
76.31101467652074
 21
162.471557223597
 31
0.0
  0
LINE
  5
249
330
6C
100
AcDbEntity
  8
Visible (ISO)
100
AcDbLine
 10
42.31101467652074
 20
162.471557223597
 30
0.0
 11
42.31101467652074
 21
162.4705572235971
 31
0.0
  0
LINE
  5
24A
330
6C
100
AcDbEntity
  8
Visible (ISO)
100
AcDbLine
 10
76.31101467652074
 20
162.4705572235971
 30
0.0
 11
74.31101467652074
 21
162.4705572235979
 31
0.0
  0
LINE
  5
24B
330
6C
100
AcDbEntity
  8
Visible (ISO)
100
AcDbLine
 10
44.31101467652074
 20
162.4705572235979
 30
0.0
 11
42.31101467652074
 21
162.4705572235971
 31
0.0
  0
LINE
  5
24C
330
6C
100
AcDbEntity
  8
Visible (ISO)
100
AcDbLine
 10
76.31101467652074
 20
162.4705572235971
 30
0.0
 11
76.31101467652074
 21
162.471557223597
 31
0.0
  0
LINE
  5
24D
330
6C
100
AcDbEntity
  8
Visible (ISO)
100
AcDbLine
 10
74.31101467652074
 20
162.4715572235979
 30
0.0
 11
44.31101467652074
 21
162.4715572235979
 31
0.0
  0
LINE
  5
24E
330
6C
100
AcDbEntity
  8
Visible (ISO)
100
AcDbLine
 10
74.31101467652074
 20
162.4705572235979
 30
0.0
 11
44.31101467652074
 21
162.4705572235979
 31
0.0
  0
LINE
  5
24F
330
6C
100
AcDbEntity
  8
Visible (ISO)
100
AcDbLine
 10
63.81101467652069
 20
174.0715572235932
 30
0.0
 11
73.61101467652069
 21
174.0715572235932
 31
0.0
  0
LINE
  5
250
330
6C
100
AcDbEntity
  8
Visible (ISO)
100
AcDbLine
 10
73.61101467652069
 20
174.0715572235932
 30
0.0
 11
74.6110146765207
 21
162.4715572235931
 31
0.0
  0
LINE
  5
251
330
6C
100
AcDbEntity
  8
Visible (ISO)
100
AcDbLine
 10
63.81101467652069
 20
174.0715572235932
 30
0.0
 11
62.81101467652067
 21
162.4715572235931
 31
0.0
  0
LINE
  5
252
330
6C
100
AcDbEntity
  8
Visible (ISO)
100
AcDbLine
 10
79.31101467652094
 20
89.9705572235972
 30
0.0
 11
65.31101467651935
 21
89.97055722359906
 31
0.0
  0
LINE
  5
253
330
6C
100
AcDbEntity
  8
Visible (ISO)
100
AcDbLine
 10
53.3110146765194
 20
89.97055722359995
 30
0.0
 11
39.31101467652037
 21
89.97055722360085
 31
0.0
  0
LINE
  5
254
330
6C
100
AcDbEntity
  8
Visible (ISO)
100
AcDbLine
 10
61.71101467652039
 20
89.87055722359844
 30
0.0
 11
56.91101467651996
 21
89.87055722359913
 31
0.0
  0
ARC
  5
255
330
6C
100
AcDbEntity
  8
Visible (ISO)
100
AcDbCircle
 10
64.31101467651918
 20
87.47055722359906
 30
0.0
 40
1.0
100
AcDbArc
 50
269.9999999999949
 51
0.0
  0
LINE
  5
256
330
6C
100
AcDbEntity
  8
Visible (ISO)
100
AcDbLine
 10
64.3110146765191
 20
86.47055722359906
 30
0.0
 11
54.3110146765191
 21
86.47055722359995
 31
0.0
  0
ARC
  5
257
330
6C
100
AcDbEntity
  8
Visible (ISO)
100
AcDbCircle
 10
54.31101467651918
 20
87.47055722359995
 30
0.0
 40
1.0
100
AcDbArc
 50
180.0
 51
269.9999999999954
  0
LINE
  5
258
330
6C
100
AcDbEntity
  8
Visible (ISO)
100
AcDbLine
 10
53.3110146765194
 20
89.97055722359995
 30
0.0
 11
53.31101467651958
 21
87.47055722359995
 31
0.0
  0
LINE
  5
259
330
6C
100
AcDbEntity
  8
Visible (ISO)
100
AcDbLine
 10
65.31101467651959
 20
87.47055722359906
 30
0.0
 11
65.31101467651935
 21
89.97055722359906
 31
0.0
  0
LINE
  5
25A
330
6C
100
AcDbEntity
  8
Visible (ISO)
100
AcDbLine
 10
56.91101467651996
 20
89.87055722359913
 30
0.0
 11
56.91101467652019
 21
93.47055722359973
 31
0.0
  0
LINE
  5
25B
330
6C
100
AcDbEntity
  8
Visible (ISO)
100
AcDbLine
 10
56.91101467652019
 20
93.47055722359973
 30
0.0
 11
61.71101467652039
 21
93.47055722359906
 31
0.0
  0
LINE
  5
25C
330
6C
100
AcDbEntity
  8
Visible (ISO)
100
AcDbLine
 10
61.71101467652039
 20
93.47055722359906
 30
0.0
 11
61.71101467652039
 21
89.87055722359844
 31
0.0
  0
LINE
  5
25D
330
6C
100
AcDbEntity
  8
Visible (ISO)
100
AcDbLine
 10
79.31101467652094
 20
89.9705572235972
 30
0.0
 11
78.68767009644393
 21
159.4974526944074
 31
0.0
  0
LINE
  5
25E
330
6C
100
AcDbEntity
  8
Visible (ISO)
100
AcDbLine
 10
39.93435925661027
 20
159.4974526944108
 30
0.0
 11
39.31101467652037
 21
89.97055722360085
 31
0.0
  0
ARC
  5
25F
330
6C
100
AcDbEntity
  8
Visible (ISO)
100
AcDbCircle
 10
42.93423869312924
 20
159.4705572235993
 30
0.0
 40
3.000000000000023
100
AcDbArc
 50
89.99999999997456
 51
179.4863274636615
  0
ARC
  5
260
330
6C
100
AcDbEntity
  8
Visible (ISO)
100
AcDbCircle
 10
75.68779065992479
 20
159.4705572235963
 30
0.0
 40
3.0
100
AcDbArc
 50
0.5136725363312851
 51
90.00000000001897
  0
LINE
  5
261
330
6C
100
AcDbEntity
  8
Visible (ISO)
100
AcDbLine
 10
39.36101215455833
 20
86.52055722359818
 30
0.0
 11
39.36101215455833
 21
89.97055722359949
 31
0.0
  0
LINE
  5
262
330
6C
100
AcDbEntity
  8
Visible (ISO)
100
AcDbLine
 10
65.51101215455796
 20
86.52055722359818
 30
0.0
 11
65.51101215455796
 21
89.97055722359835
 31
0.0
  0
LINE
  5
263
330
6C
100
AcDbEntity
  8
Visible (ISO)
100
AcDbLine
 10
65.51101215455796
 20
86.52055722359818
 30
0.0
 11
76.26101215455794
 21
86.52055722359818
 31
0.0
  0
LINE
  5
264
330
6C
100
AcDbEntity
  8
Visible (ISO)
100
AcDbLine
 10
79.26101215455794
 20
86.52055722359822
 30
0.0
 11
76.26101215455794
 21
86.52055722359822
 31
0.0
  0
LINE
  5
265
330
6C
100
AcDbEntity
  8
Visible (ISO)
100
AcDbLine
 10
79.26101215455794
 20
86.52055722359822
 30
0.0
 11
79.26101215455794
 21
89.97055722359595
 31
0.0
  0
LINE
  5
266
330
6C
100
AcDbEntity
  8
Visible (ISO)
100
AcDbLine
 10
76.97388061574589
 20
84.22055722359827
 30
0.0
 11
76.31101215455815
 21
84.22055722359827
 31
0.0
  0
LINE
  5
267
330
6C
100
AcDbEntity
  8
Visible (ISO)
100
AcDbLine
 10
42.31101215455814
 20
84.22055722359827
 30
0.0
 11
76.31101215455815
 21
84.22055722359827
 31
0.0
  0
LINE
  5
268
330
6C
100
AcDbEntity
  8
Visible (ISO)
100
AcDbLine
 10
42.31101215455814
 20
84.22055722359827
 30
0.0
 11
41.64814369337039
 21
84.22055722359827
 31
0.0
  0
LINE
  5
269
330
6C
100
AcDbEntity
  8
Visible (ISO)
100
AcDbLine
 10
42.36101215455833
 20
86.52055722359818
 30
0.0
 11
39.3610121545584
 21
86.52055722359818
 31
0.0
  0
LINE
  5
26A
330
6C
100
AcDbEntity
  8
Visible (ISO)
100
AcDbLine
 10
53.11101215455787
 20
86.52055722359818
 30
0.0
 11
53.11101215455787
 21
89.97055722359945
 31
0.0
  0
LINE
  5
26B
330
6C
100
AcDbEntity
  8
Visible (ISO)
100
AcDbLine
 10
42.36101215455831
 20
86.52055722359818
 30
0.0
 11
53.11101215455787
 21
86.52055722359818
 31
0.0
  0
LINE
  5
26C
330
6C
100
AcDbEntity
  8
Visible (ISO)
100
AcDbLine
 10
57.31101215455769
 20
91.4420962545153
 30
0.0
 11
57.31101215455769
 21
90.02055722359846
 31
0.0
  0
LINE
  5
26D
330
6C
100
AcDbEntity
  8
Visible (ISO)
100
AcDbLine
 10
61.3110121545577
 20
90.02055722359846
 30
0.0
 11
57.31101215455769
 21
90.02055722359846
 31
0.0
  0
LINE
  5
26E
330
6C
100
AcDbEntity
  8
Visible (ISO)
100
AcDbLine
 10
61.3110121545577
 20
90.02055722359846
 30
0.0
 11
61.3110121545577
 21
91.4420962545153
 31
0.0
  0
LINE
  5
26F
330
6C
100
AcDbEntity
  8
Visible (ISO)
100
AcDbLine
 10
61.3110121545577
 20
91.4420962545153
 30
0.0
 11
57.31101215455769
 21
91.4420962545153
 31
0.0
  0
LINE
  5
270
330
6C
100
AcDbEntity
  8
Visible (ISO)
100
AcDbLine
 10
57.31101215455769
 20
89.87055722359803
 30
0.0
 11
57.31101215455769
 21
90.02055722359846
 31
0.0
  0
LINE
  5
271
330
6C
100
AcDbEntity
  8
Visible (ISO)
100
AcDbLine
 10
61.3110121545577
 20
90.02055722359845
 30
0.0
 11
61.3110121545577
 21
89.87055722359803
 31
0.0
  0
LINE
  5
272
330
6C
100
AcDbEntity
  8
Visible (ISO)
100
AcDbLine
 10
57.31101215455769
 20
93.47055722359973
 30
0.0
 11
57.31101215455769
 21
91.4420962545153
 31
0.0
  0
LINE
  5
273
330
6C
100
AcDbEntity
  8
Visible (ISO)
100
AcDbLine
 10
61.3110121545577
 20
91.4420962545153
 30
0.0
 11
61.31101215455768
 21
93.47055722359908
 31
0.0
  0
LINE
  5
274
330
6C
100
AcDbEntity
  8
Visible (ISO)
100
AcDbLine
 10
65.51101215455796
 20
86.52055722359818
 30
0.0
 11
64.62326457643657
 21
86.52055722359818
 31
0.0
  0
LINE
  5
275
330
6C
100
AcDbEntity
  8
Visible (ISO)
100
AcDbLine
 10
53.99876477660462
 20
86.52055722359818
 30
0.0
 11
53.11101215455787
 21
86.52055722359818
 31
0.0
  0
LINE
  5
276
330
6C
100
AcDbEntity
  8
Visible (ISO)
100
AcDbLine
 10
77.81101215455814
 20
86.52055722359827
 30
0.0
 11
76.97388061574551
 21
84.22055722359827
 31
0.0
  0
LINE
  5
277
330
6C
100
AcDbEntity
  8
Visible (ISO)
100
AcDbLine
 10
40.81101215455814
 20
86.52055722359827
 30
0.0
 11
41.64814369337031
 21
84.22055722359827
 31
0.0
  0
LINE
  5
278
330
6C
100
AcDbEntity
  8
Visible (ISO)
100
AcDbLine
 10
44.81101467652074
 20
77.02055722359823
 30
0.0
 11
44.5430654840896
 21
76.02055722359825
 31
0.0
  0
LINE
  5
279
330
6C
100
AcDbEntity
  8
Visible (ISO)
100
AcDbLine
 10
49.81101467652074
 20
77.02055722359826
 30
0.0
 11
49.54306548408961
 21
76.02055722359825
 31
0.0
  0
LINE
  5
27A
330
6C
100
AcDbEntity
  8
Visible (ISO)
100
AcDbLine
 10
54.81101467652074
 20
77.02055722359826
 30
0.0
 11
54.54306548408961
 21
76.02055722359826
 31
0.0
  0
LINE
  5
27B
330
6C
100
AcDbEntity
  8
Visible (ISO)
100
AcDbLine
 10
59.81101467652074
 20
77.02055722359826
 30
0.0
 11
59.54306548408961
 21
76.02055722359826
 31
0.0
  0
LINE
  5
27C
330
6C
100
AcDbEntity
  8
Visible (ISO)
100
AcDbLine
 10
64.81101467652074
 20
77.02055722359826
 30
0.0
 11
64.54306548408961
 21
76.02055722359826
 31
0.0
  0
LINE
  5
27D
330
6C
100
AcDbEntity
  8
Visible (ISO)
100
AcDbLine
 10
69.81101467652074
 20
77.02055722359823
 30
0.0
 11
69.54306548408961
 21
76.02055722359825
 31
0.0
  0
LINE
  5
27E
330
6C
100
AcDbEntity
  8
Visible (ISO)
100
AcDbLine
 10
74.81101467652074
 20
77.02055722359823
 30
0.0
 11
74.54306548408962
 21
76.02055722359825
 31
0.0
  0
LINE
  5
27F
330
6C
100
AcDbEntity
  8
Visible (ISO)
100
AcDbLine
 10
44.07896386895187
 20
76.02055722359825
 30
0.0
 11
44.5430654840896
 21
76.02055722359825
 31
0.0
  0
LINE
  5
280
330
6C
100
AcDbEntity
  8
Visible (ISO)
100
AcDbLine
 10
44.81101467652074
 20
77.02055722359823
 30
0.0
 11
43.81101467652074
 21
77.02055722359823
 31
0.0
  0
LINE
  5
281
330
6C
100
AcDbEntity
  8
Visible (ISO)
100
AcDbLine
 10
49.07896386895187
 20
76.02055722359825
 30
0.0
 11
49.54306548408961
 21
76.02055722359825
 31
0.0
  0
LINE
  5
282
330
6C
100
AcDbEntity
  8
Visible (ISO)
100
AcDbLine
 10
49.81101467652074
 20
77.02055722359826
 30
0.0
 11
48.81101467652074
 21
77.02055722359826
 31
0.0
  0
LINE
  5
283
330
6C
100
AcDbEntity
  8
Visible (ISO)
100
AcDbLine
 10
54.07896386895187
 20
76.02055722359826
 30
0.0
 11
54.54306548408961
 21
76.02055722359826
 31
0.0
  0
LINE
  5
284
330
6C
100
AcDbEntity
  8
Visible (ISO)
100
AcDbLine
 10
54.81101467652074
 20
77.02055722359826
 30
0.0
 11
53.81101467652074
 21
77.02055722359826
 31
0.0
  0
LINE
  5
285
330
6C
100
AcDbEntity
  8
Visible (ISO)
100
AcDbLine
 10
59.07896386895187
 20
76.02055722359826
 30
0.0
 11
59.54306548408961
 21
76.02055722359826
 31
0.0
  0
LINE
  5
286
330
6C
100
AcDbEntity
  8
Visible (ISO)
100
AcDbLine
 10
59.81101467652074
 20
77.02055722359826
 30
0.0
 11
58.81101467652074
 21
77.02055722359826
 31
0.0
  0
LINE
  5
287
330
6C
100
AcDbEntity
  8
Visible (ISO)
100
AcDbLine
 10
64.07896386895186
 20
76.02055722359826
 30
0.0
 11
64.54306548408961
 21
76.02055722359826
 31
0.0
  0
LINE
  5
288
330
6C
100
AcDbEntity
  8
Visible (ISO)
100
AcDbLine
 10
64.81101467652074
 20
77.02055722359826
 30
0.0
 11
63.81101467652074
 21
77.02055722359826
 31
0.0
  0
LINE
  5
289
330
6C
100
AcDbEntity
  8
Visible (ISO)
100
AcDbLine
 10
69.07896386895186
 20
76.02055722359825
 30
0.0
 11
69.54306548408961
 21
76.02055722359825
 31
0.0
  0
LINE
  5
28A
330
6C
100
AcDbEntity
  8
Visible (ISO)
100
AcDbLine
 10
69.81101467652074
 20
77.02055722359823
 30
0.0
 11
68.81101467652074
 21
77.02055722359823
 31
0.0
  0
LINE
  5
28B
330
6C
100
AcDbEntity
  8
Visible (ISO)
100
AcDbLine
 10
74.07896386895187
 20
76.02055722359825
 30
0.0
 11
74.54306548408962
 21
76.02055722359825
 31
0.0
  0
LINE
  5
28C
330
6C
100
AcDbEntity
  8
Visible (ISO)
100
AcDbLine
 10
74.81101467652074
 20
77.02055722359823
 30
0.0
 11
73.81101467652074
 21
77.02055722359823
 31
0.0
  0
LINE
  5
28D
330
6C
100
AcDbEntity
  8
Visible (ISO)
100
AcDbLine
 10
44.07896386895187
 20
76.02055722359825
 30
0.0
 11
43.81101467652074
 21
77.02055722359823
 31
0.0
  0
LINE
  5
28E
330
6C
100
AcDbEntity
  8
Visible (ISO)
100
AcDbLine
 10
49.07896386895187
 20
76.02055722359825
 30
0.0
 11
48.81101467652074
 21
77.02055722359826
 31
0.0
  0
LINE
  5
28F
330
6C
100
AcDbEntity
  8
Visible (ISO)
100
AcDbLine
 10
54.07896386895187
 20
76.02055722359826
 30
0.0
 11
53.81101467652074
 21
77.02055722359826
 31
0.0
  0
LINE
  5
290
330
6C
100
AcDbEntity
  8
Visible (ISO)
100
AcDbLine
 10
59.07896386895187
 20
76.02055722359826
 30
0.0
 11
58.81101467652074
 21
77.02055722359826
 31
0.0
  0
LINE
  5
291
330
6C
100
AcDbEntity
  8
Visible (ISO)
100
AcDbLine
 10
64.07896386895186
 20
76.02055722359826
 30
0.0
 11
63.81101467652074
 21
77.02055722359826
 31
0.0
  0
LINE
  5
292
330
6C
100
AcDbEntity
  8
Visible (ISO)
100
AcDbLine
 10
69.07896386895186
 20
76.02055722359825
 30
0.0
 11
68.81101467652074
 21
77.02055722359823
 31
0.0
  0
LINE
  5
293
330
6C
100
AcDbEntity
  8
Visible (ISO)
100
AcDbLine
 10
74.07896386895187
 20
76.02055722359825
 30
0.0
 11
73.81101467652074
 21
77.02055722359823
 31
0.0
  0
LINE
  5
294
330
6C
100
AcDbEntity
  8
Visible (ISO)
100
AcDbLine
 10
43.81101467652074
 20
84.12613003259833
 30
0.0
 11
43.81101467652074
 21
77.02055722359823
 31
0.0
  0
LINE
  5
295
330
6C
100
AcDbEntity
  8
Visible (ISO)
100
AcDbLine
 10
43.81101467652074
 20
84.12613003259833
 30
0.0
 11
43.81101467652074
 21
84.22055722359827
 31
0.0
  0
LINE
  5
296
330
6C
100
AcDbEntity
  8
Visible (ISO)
100
AcDbLine
 10
44.81101467652074
 20
77.02055722359823
 30
0.0
 11
44.81101467652074
 21
84.12613003259833
 31
0.0
  0
LINE
  5
297
330
6C
100
AcDbEntity
  8
Visible (ISO)
100
AcDbLine
 10
43.81101467652074
 20
84.12613003259833
 30
0.0
 11
44.81101467652074
 21
84.12613003259833
 31
0.0
  0
LINE
  5
298
330
6C
100
AcDbEntity
  8
Visible (ISO)
100
AcDbLine
 10
44.81101467652074
 20
84.22055722359827
 30
0.0
 11
44.81101467652074
 21
84.12613003259833
 31
0.0
  0
LINE
  5
299
330
6C
100
AcDbEntity
  8
Visible (ISO)
100
AcDbLine
 10
48.81101467652074
 20
84.12613003259833
 30
0.0
 11
48.81101467652074
 21
77.02055722359826
 31
0.0
  0
LINE
  5
29A
330
6C
100
AcDbEntity
  8
Visible (ISO)
100
AcDbLine
 10
48.81101467652074
 20
84.12613003259833
 30
0.0
 11
48.81101467652074
 21
84.22055722359827
 31
0.0
  0
LINE
  5
29B
330
6C
100
AcDbEntity
  8
Visible (ISO)
100
AcDbLine
 10
49.81101467652074
 20
77.02055722359826
 30
0.0
 11
49.81101467652074
 21
84.12613003259833
 31
0.0
  0
LINE
  5
29C
330
6C
100
AcDbEntity
  8
Visible (ISO)
100
AcDbLine
 10
48.81101467652074
 20
84.12613003259833
 30
0.0
 11
49.81101467652074
 21
84.12613003259833
 31
0.0
  0
LINE
  5
29D
330
6C
100
AcDbEntity
  8
Visible (ISO)
100
AcDbLine
 10
49.81101467652074
 20
84.22055722359827
 30
0.0
 11
49.81101467652074
 21
84.12613003259833
 31
0.0
  0
LINE
  5
29E
330
6C
100
AcDbEntity
  8
Visible (ISO)
100
AcDbLine
 10
53.81101467652074
 20
84.12613003259833
 30
0.0
 11
53.81101467652074
 21
77.02055722359826
 31
0.0
  0
LINE
  5
29F
330
6C
100
AcDbEntity
  8
Visible (ISO)
100
AcDbLine
 10
53.81101467652074
 20
84.12613003259833
 30
0.0
 11
53.81101467652074
 21
84.22055722359827
 31
0.0
  0
LINE
  5
2A0
330
6C
100
AcDbEntity
  8
Visible (ISO)
100
AcDbLine
 10
54.81101467652074
 20
77.02055722359826
 30
0.0
 11
54.81101467652074
 21
84.12613003259833
 31
0.0
  0
LINE
  5
2A1
330
6C
100
AcDbEntity
  8
Visible (ISO)
100
AcDbLine
 10
53.81101467652074
 20
84.12613003259833
 30
0.0
 11
54.81101467652074
 21
84.12613003259833
 31
0.0
  0
LINE
  5
2A2
330
6C
100
AcDbEntity
  8
Visible (ISO)
100
AcDbLine
 10
54.81101467652074
 20
84.22055722359827
 30
0.0
 11
54.81101467652074
 21
84.12613003259833
 31
0.0
  0
LINE
  5
2A3
330
6C
100
AcDbEntity
  8
Visible (ISO)
100
AcDbLine
 10
59.81101467652074
 20
84.22055722359827
 30
0.0
 11
59.81101467652074
 21
84.12613003259837
 31
0.0
  0
LINE
  5
2A4
330
6C
100
AcDbEntity
  8
Visible (ISO)
100
AcDbLine
 10
59.81101467652074
 20
77.02055722359826
 30
0.0
 11
59.81101467652074
 21
84.12613003259833
 31
0.0
  0
LINE
  5
2A5
330
6C
100
AcDbEntity
  8
Visible (ISO)
100
AcDbLine
 10
58.81101467652074
 20
84.12613003259833
 30
0.0
 11
58.81101467652074
 21
77.02055722359826
 31
0.0
  0
LINE
  5
2A6
330
6C
100
AcDbEntity
  8
Visible (ISO)
100
AcDbLine
 10
58.81101467652074
 20
84.12613003259837
 30
0.0
 11
58.81101467652074
 21
84.22055722359827
 31
0.0
  0
LINE
  5
2A7
330
6C
100
AcDbEntity
  8
Visible (ISO)
100
AcDbLine
 10
58.81101467652074
 20
84.12613003259833
 30
0.0
 11
59.81101467652074
 21
84.12613003259833
 31
0.0
  0
LINE
  5
2A8
330
6C
100
AcDbEntity
  8
Visible (ISO)
100
AcDbLine
 10
63.81101467652074
 20
84.12613003259833
 30
0.0
 11
63.81101467652074
 21
77.02055722359826
 31
0.0
  0
LINE
  5
2A9
330
6C
100
AcDbEntity
  8
Visible (ISO)
100
AcDbLine
 10
63.81101467652074
 20
84.12613003259833
 30
0.0
 11
63.81101467652074
 21
84.22055722359827
 31
0.0
  0
LINE
  5
2AA
330
6C
100
AcDbEntity
  8
Visible (ISO)
100
AcDbLine
 10
64.81101467652074
 20
77.02055722359826
 30
0.0
 11
64.81101467652074
 21
84.12613003259833
 31
0.0
  0
LINE
  5
2AB
330
6C
100
AcDbEntity
  8
Visible (ISO)
100
AcDbLine
 10
63.81101467652074
 20
84.12613003259833
 30
0.0
 11
64.81101467652074
 21
84.12613003259833
 31
0.0
  0
LINE
  5
2AC
330
6C
100
AcDbEntity
  8
Visible (ISO)
100
AcDbLine
 10
64.81101467652074
 20
84.22055722359827
 30
0.0
 11
64.81101467652074
 21
84.12613003259833
 31
0.0
  0
LINE
  5
2AD
330
6C
100
AcDbEntity
  8
Visible (ISO)
100
AcDbLine
 10
69.81101467652074
 20
84.22055722359827
 30
0.0
 11
69.81101467652074
 21
84.12613003259833
 31
0.0
  0
LINE
  5
2AE
330
6C
100
AcDbEntity
  8
Visible (ISO)
100
AcDbLine
 10
69.81101467652074
 20
77.02055722359823
 30
0.0
 11
69.81101467652074
 21
84.12613003259833
 31
0.0
  0
LINE
  5
2AF
330
6C
100
AcDbEntity
  8
Visible (ISO)
100
AcDbLine
 10
68.81101467652074
 20
84.12613003259833
 30
0.0
 11
68.81101467652074
 21
77.02055722359823
 31
0.0
  0
LINE
  5
2B0
330
6C
100
AcDbEntity
  8
Visible (ISO)
100
AcDbLine
 10
68.81101467652074
 20
84.12613003259833
 30
0.0
 11
68.81101467652074
 21
84.22055722359827
 31
0.0
  0
LINE
  5
2B1
330
6C
100
AcDbEntity
  8
Visible (ISO)
100
AcDbLine
 10
68.81101467652074
 20
84.12613003259833
 30
0.0
 11
69.81101467652074
 21
84.12613003259833
 31
0.0
  0
LINE
  5
2B2
330
6C
100
AcDbEntity
  8
Visible (ISO)
100
AcDbLine
 10
73.81101467652074
 20
84.12613003259833
 30
0.0
 11
73.81101467652074
 21
77.02055722359823
 31
0.0
  0
LINE
  5
2B3
330
6C
100
AcDbEntity
  8
Visible (ISO)
100
AcDbLine
 10
73.81101467652074
 20
84.12613003259833
 30
0.0
 11
73.81101467652074
 21
84.22055722359827
 31
0.0
  0
LINE
  5
2B4
330
6C
100
AcDbEntity
  8
Visible (ISO)
100
AcDbLine
 10
74.81101467652074
 20
77.02055722359823
 30
0.0
 11
74.81101467652074
 21
84.12613003259833
 31
0.0
  0
LINE
  5
2B5
330
6C
100
AcDbEntity
  8
Visible (ISO)
100
AcDbLine
 10
73.81101467652074
 20
84.12613003259833
 30
0.0
 11
74.81101467652074
 21
84.12613003259833
 31
0.0
  0
LINE
  5
2B6
330
6C
100
AcDbEntity
  8
Visible (ISO)
100
AcDbLine
 10
74.81101467652074
 20
84.22055722359827
 30
0.0
 11
74.81101467652074
 21
84.12613003259833
 31
0.0
  0
LINE
  5
2B7
330
6C
100
AcDbEntity
  8
Visible (ISO)
100
AcDbLine
 10
52.36101215455814
 20
84.22055722359827
 30
0.0
 11
52.36101215455814
 21
84.02055722359817
 31
0.0
  0
LINE
  5
2B8
330
6C
100
AcDbEntity
  8
Visible (ISO)
100
AcDbLine
 10
61.26101215455815
 20
84.22055722359827
 30
0.0
 11
61.26101215455815
 21
84.02055722359817
 31
0.0
  0
LINE
  5
2B9
330
6C
100
AcDbEntity
  8
Visible (ISO)
100
AcDbLine
 10
54.72099167893762
 20
76.68458682276844
 30
0.0
 11
54.80919484243429
 21
74.89437208489437
 31
0.0
  0
LINE
  5
2BA
330
6C
100
AcDbEntity
  8
Visible (ISO)
100
AcDbLine
 10
58.812829466682
 20
74.89437208489437
 30
0.0
 11
58.90103341358803
 21
76.68460272322997
 31
0.0
  0
ARC
  5
2BB
330
6C
100
AcDbEntity
  8
Visible (ISO)
100
AcDbCircle
 10
53.31101215455814
 20
74.82055722359816
 30
0.0
 40
1.499999999999998
100
AcDbArc
 50
306.869897645844
 51
2.820659218931691
  0
LINE
  5
2BC
330
6C
100
AcDbEntity
  8
Visible (ISO)
100
AcDbLine
 10
54.21101215455814
 20
73.62055722359816
 30
0.0
 11
52.71101215455814
 21
73.62055722359816
 31
0.0
  0
ARC
  5
2BD
330
6C
100
AcDbEntity
  8
Visible (ISO)
100
AcDbCircle
 10
52.71101215455814
 20
73.82055722359817
 30
0.0
 40
0.2000000000000046
100
AcDbArc
 50
202.6198649480424
 51
270.0
  0
ARC
  5
2BE
330
6C
100
AcDbEntity
  8
Visible (ISO)
100
AcDbCircle
 10
53.91101215455815
 20
74.32055722359816
 30
0.0
 40
1.500000000000004
100
AcDbArc
 50
104.6072649322075
 51
202.6198649480401
  0
ARC
  5
2BF
330
6C
100
AcDbEntity
  8
Visible (ISO)
100
AcDbCircle
 10
53.48228565455813
 20
75.96560846541335
 30
0.0
 40
0.2000000000000044
100
AcDbArc
 50
284.607264932209
 51
9.334000688992539
  0
LINE
  5
2C0
330
6C
100
AcDbEntity
  8
Visible (ISO)
100
AcDbLine
 10
53.67963758317205
 20
75.9980463487038
 30
0.0
 11
52.36101215455814
 21
84.02055722359817
 31
0.0
  0
LINE
  5
2C1
330
6C
100
AcDbEntity
  8
Visible (ISO)
100
AcDbLine
 10
61.26101215455815
 20
84.02055722359817
 30
0.0
 11
59.94238672594423
 21
75.99804634870384
 31
0.0
  0
ARC
  5
2C2
330
6C
100
AcDbEntity
  8
Visible (ISO)
100
AcDbCircle
 10
60.13973865455814
 20
75.96560846541335
 30
0.0
 40
0.2000000000000035
100
AcDbArc
 50
170.6659993110075
 51
255.3927350677909
  0
ARC
  5
2C3
330
6C
100
AcDbEntity
  8
Visible (ISO)
100
AcDbCircle
 10
59.71101215455814
 20
74.32055722359817
 30
0.0
 40
1.500000000000003
100
AcDbArc
 50
337.3801350519597
 51
75.3927350677927
  0
ARC
  5
2C4
330
6C
100
AcDbEntity
  8
Visible (ISO)
100
AcDbCircle
 10
60.91101215455815
 20
73.82055722359817
 30
0.0
 40
0.2000000000000055
100
AcDbArc
 50
270.0
 51
337.3801350519576
  0
LINE
  5
2C5
330
6C
100
AcDbEntity
  8
Visible (ISO)
100
AcDbLine
 10
60.91101215455815
 20
73.62055722359816
 30
0.0
 11
59.41101215455815
 21
73.62055722359816
 31
0.0
  0
ARC
  5
2C6
330
6C
100
AcDbEntity
  8
Visible (ISO)
100
AcDbCircle
 10
60.31101215455816
 20
74.82055722359817
 30
0.0
 40
1.500000000000015
100
AcDbArc
 50
177.1793407810686
 51
233.1301023541556
  0
LINE
  5
2C7
330
6C
100
AcDbEntity
  8
Visible (ISO)
100
AcDbLine
 10
68.71174146017615
 20
84.02055722359826
 30
0.0
 11
68.55858100028135
 21
84.02055722359826
 31
0.0
  0
SPLINE
  5
2C8
330
6C
100
AcDbEntity
  8
Visible (ISO)
100
AcDbSpline
210
0.0
220
0.0
230
1.0
 70
    24
 71
     3
 72
    16
 73
    12
 74
     0
 42
0.0000000001
 43
0.0000000001
 40
-0.098960449112324
 40
-0.098960449112324
 40
-0.098960449112324
 40
-0.098960449112324
 40
-0.0750712023319158
 40
-0.0750712023319158
 40
-0.0544517111641421
 40
-0.0544517111641421
 40
-0.0321043179234108
 40
-0.0321043179234108
 40
-0.0192260797526295
 40
-0.0192260797526295
 40
0.0
 40
0.0
 40
0.0
 40
0.0
 10
70.06344329670806
 20
84.02055722359826
 30
0.0
 10
70.04317134591528
 20
84.02055722359826
 30
0.0
 10
70.02264990235374
 20
84.02055722359826
 30
0.0
 10
69.98604198830917
 20
84.02055722359826
 30
0.0
 10
69.96944021448593
 20
84.02055722359826
 30
0.0
 10
69.93747553619407
 20
84.02055722359826
 30
0.0
 10
69.92276710212888
 20
84.02055722359826
 30
0.0
 10
69.90362049589421
 20
84.02055722359826
 30
0.0
 10
69.88984546221177
 20
84.02055722359826
 30
0.0
 10
69.8599762755068
 20
84.02055722359826
 30
0.0
 10
69.8543671133596
 20
84.02055722359826
 30
0.0
 10
69.8543671133596
 20
84.02055722359826
 30
0.0
  0
LINE
  5
2C9
330
6C
100
AcDbEntity
  8
Visible (ISO)
100
AcDbLine
 10
69.8543671133596
 20
84.02055722359826
 30
0.0
 11
69.81101467652074
 21
84.02055722359826
 31
0.0
  0
LINE
  5
2CA
330
6C
100
AcDbEntity
  8
Visible (ISO)
100
AcDbLine
 10
68.81101467652074
 20
84.02055722359826
 30
0.0
 11
68.71174146017615
 21
84.02055722359826
 31
0.0
  0
LINE
  5
2CB
330
6C
100
AcDbEntity
  8
Visible (ISO)
100
AcDbLine
 10
70.06344329670806
 20
84.22055722359827
 30
0.0
 11
70.06344329670806
 21
84.02055722359826
 31
0.0
  0
LINE
  5
2CC
330
6C
100
AcDbEntity
  8
Visible (ISO)
100
AcDbLine
 10
68.55858100028135
 20
84.22055722359827
 30
0.0
 11
68.55858100028135
 21
84.02055722359826
 31
0.0
  0
LINE
  5
2CD
330
6C
100
AcDbEntity
  8
Visible (ISO)
100
AcDbLine
 10
68.71174146017615
 20
84.22055722359827
 30
0.0
 11
68.71174146017615
 21
84.02055722359826
 31
0.0
  0
LINE
  5
2CE
330
6C
100
AcDbEntity
  8
Visible (ISO)
100
AcDbLine
 10
69.8543671133596
 20
84.22055722359827
 30
0.0
 11
69.8543671133596
 21
84.02055722359826
 31
0.0
  0
LINE
  5
2CF
330
6C
100
AcDbEntity
  8
Visible (ISO)
100
AcDbLine
 10
53.81101467652074
 20
84.02055722359826
 30
0.0
 11
53.63029900029843
 21
84.02055722359826
 31
0.0
  0
LINE
  5
2D0
330
6C
100
AcDbEntity
  8
Visible (ISO)
100
AcDbLine
 10
53.63029900029843
 20
84.22055722359827
 30
0.0
 11
53.63029900029843
 21
84.02055722359826
 31
0.0
  0
SPLINE
  5
2D1
330
6C
100
AcDbEntity
  8
Visible (ISO)
100
AcDbSpline
210
0.0
220
0.0
230
1.0
 70
    24
 71
     3
 72
    10
 73
     6
 74
     0
 42
0.0000000001
 43
0.0000000001
 40
-0.075759715871126
 40
-0.075759715871126
 40
-0.075759715871126
 40
-0.075759715871126
 40
-0.0293587108952912
 40
-0.0293587108952912
 40
0.0
 40
0.0
 40
0.0
 40
0.0
 10
53.63029900029843
 20
84.02055722359826
 30
0.0
 10
53.60241037701711
 20
84.02055722359826
 30
0.0
 10
53.58286681506195
 20
84.02055722359826
 30
0.0
 10
53.5600846073141
 20
84.02055722359826
 30
0.0
 10
53.54520985591245
 20
84.02055722359826
 30
0.0
 10
53.54520985591245
 20
84.02055722359826
 30
0.0
  0
LINE
  5
2D2
330
6C
100
AcDbEntity
  8
Visible (ISO)
100
AcDbLine
 10
53.54520985591244
 20
84.22055722359827
 30
0.0
 11
53.54520985591245
 21
84.02055722359826
 31
0.0
  0
LINE
  5
2D3
330
6C
100
AcDbEntity
  8
Visible (ISO)
100
AcDbLine
 10
55.07681445486046
 20
84.22055722359827
 30
0.0
 11
55.07681445486046
 21
84.02055722359826
 31
0.0
  0
LINE
  5
2D4
330
6C
100
AcDbEntity
  8
Visible (ISO)
100
AcDbLine
 10
55.07681445486046
 20
84.02055722359826
 30
0.0
 11
54.81101467652074
 21
84.02055722359826
 31
0.0
  0
LINE
  5
2D5
330
6C
100
AcDbEntity
  8
Visible (ISO)
100
AcDbLine
 10
60.06101218436024
 20
84.02055722359826
 30
0.0
 11
59.88475609956068
 21
84.02055722359826
 31
0.0
  0
LINE
  5
2D6
330
6C
100
AcDbEntity
  8
Visible (ISO)
100
AcDbLine
 10
60.06101218436024
 20
84.22055722359827
 30
0.0
 11
60.06101218436024
 21
84.02055722359826
 31
0.0
  0
LINE
  5
2D7
330
6C
100
AcDbEntity
  8
Visible (ISO)
100
AcDbLine
 10
59.88475609956068
 20
84.22055722359827
 30
0.0
 11
59.88475609956068
 21
84.02055722359826
 31
0.0
  0
LINE
  5
2D8
330
6C
100
AcDbEntity
  8
Visible (ISO)
100
AcDbLine
 10
59.88475609956068
 20
84.02055722359826
 30
0.0
 11
59.81101467652074
 21
84.02055722359826
 31
0.0
  0
LINE
  5
2D9
330
6C
100
AcDbEntity
  8
Visible (ISO)
100
AcDbLine
 10
58.81101467652074
 20
84.02055722359826
 30
0.0
 11
58.56101212475559
 21
84.02055722359826
 31
0.0
  0
LINE
  5
2DA
330
6C
100
AcDbEntity
  8
Visible (ISO)
100
AcDbLine
 10
58.56101212475559
 20
84.22055722359827
 30
0.0
 11
58.56101212475559
 21
84.02055722359826
 31
0.0
  0
LINE
  5
2DB
330
6C
100
AcDbEntity
  8
Visible (ISO)
100
AcDbLine
 10
68.55858100028135
 20
84.02055722359826
 30
0.0
 11
68.54520981581308
 21
84.02055722359826
 31
0.0
  0
LINE
  5
2DC
330
6C
100
AcDbEntity
  8
Visible (ISO)
100
AcDbLine
 10
68.54520981581308
 20
84.22055722359827
 30
0.0
 11
68.54520981581308
 21
84.02055722359826
 31
0.0
  0
LINE
  5
2DD
330
6C
100
AcDbEntity
  8
Visible (ISO)
100
AcDbLine
 10
63.74516934404528
 20
84.22055722359827
 30
0.0
 11
63.74516934404528
 21
84.02055722359826
 31
0.0
  0
LINE
  5
2DE
330
6C
100
AcDbEntity
  8
Visible (ISO)
100
AcDbLine
 10
63.74516934404528
 20
84.02055722359826
 30
0.0
 11
63.5518954303685
 21
84.02055722359826
 31
0.0
  0
LINE
  5
2DF
330
6C
100
AcDbEntity
  8
Visible (ISO)
100
AcDbLine
 10
63.5518954303685
 20
84.22055722359827
 30
0.0
 11
63.5518954303685
 21
84.02055722359826
 31
0.0
  0
SPLINE
  5
2E0
330
6C
100
AcDbEntity
  8
Visible (ISO)
100
AcDbSpline
210
0.0
220
0.0
230
1.0
 70
    24
 71
     3
 72
    10
 73
     6
 74
     0
 42
0.0000000001
 43
0.0000000001
 40
-0.0550898145249483
 40
-0.0550898145249483
 40
-0.0550898145249483
 40
-0.0550898145249483
 40
-0.0126107679882743
 40
-0.0126107679882743
 40
0.0
 40
0.0
 40
0.0
 40
0.0
 10
63.5518954303685
 20
84.02055722359826
 30
0.0
 10
63.54332767963761
 20
84.02055722359826
 30
0.0
 10
63.53815434121571
 20
84.02055722359826
 30
0.0
 10
63.53469304605813
 20
84.02055722359826
 30
0.0
 10
63.53123092387477
 20
84.02055722359826
 30
0.0
 10
63.53123092387477
 20
84.02055722359826
 30
0.0
  0
LINE
  5
2E1
330
6C
100
AcDbEntity
  8
Visible (ISO)
100
AcDbLine
 10
63.53123092387477
 20
84.22055722359827
 30
0.0
 11
63.53123092387477
 21
84.02055722359826
 31
0.0
  0
LINE
  5
2E2
330
6C
100
AcDbEntity
  8
Visible (ISO)
100
AcDbLine
 10
65.09079338454961
 20
84.22055722359827
 30
0.0
 11
65.09079338454961
 21
84.02055722359826
 31
0.0
  0
SPLINE
  5
2E3
330
6C
100
AcDbEntity
  8
Visible (ISO)
100
AcDbSpline
210
0.0
220
0.0
230
1.0
 70
    24
 71
     3
 72
    12
 73
     8
 74
     0
 42
0.0000000001
 43
0.0000000001
 40
-0.0318597001614248
 40
-0.0318597001614248
 40
-0.0318597001614248
 40
-0.0318597001614248
 40
-0.0247169486139358
 40
-0.0247169486139358
 40
-0.0161112438727923
 40
-0.0161112438727923
 40
0.0
 40
0.0
 40
0.0
 40
0.0
 10
65.09079338454961
 20
84.02055722359826
 30
0.0
 10
65.09079338454961
 20
84.02055722359826
 30
0.0
 10
65.08673245331298
 20
84.02055722359826
 30
0.0
 10
65.06921484263002
 20
84.02055722359826
 30
0.0
 10
65.0552273006424
 20
84.02055722359826
 30
0.0
 10
65.01984488177372
 20
84.02055722359826
 30
0.0
 10
64.98916805703986
 20
84.02055722359826
 30
0.0
 10
64.94978851670994
 20
84.02055722359826
 30
0.0
  0
SPLINE
  5
2E4
330
6C
100
AcDbEntity
  8
Visible (ISO)
100
AcDbSpline
210
0.0
220
0.0
230
1.0
 70
    24
 71
     3
 72
     8
 73
     4
 74
     0
 42
0.0000000001
 43
0.0000000001
 40
-0.083705700820836
 40
-0.083705700820836
 40
-0.083705700820836
 40
-0.083705700820836
 40
-0.0390205010116815
 40
-0.0390205010116815
 40
-0.0390205010116815
 40
-0.0390205010116815
 10
64.94978851670994
 20
84.02055722359826
 30
0.0
 10
64.90881598043308
 20
84.02055722359826
 30
0.0
 10
64.86209991129732
 20
84.02055722359826
 30
0.0
 10
64.81101467447229
 20
84.02055722359826
 30
0.0
  0
SPLINE
  5
2E5
330
6C
100
AcDbEntity
  8
Visible (ISO)
100
AcDbSpline
210
0.0
220
0.0
230
1.0
 70
    24
 71
     3
 72
     8
 73
     4
 74
     0
 42
0.0000000001
 43
0.0000000001
 40
-0.0316346491972715
 40
-0.0316346491972715
 40
-0.0316346491972715
 40
-0.0316346491972715
 40
-0.0199354433069468
 40
-0.0199354433069468
 40
-0.0199354433069468
 40
-0.0199354433069468
 10
63.81101467652074
 20
84.02055722359826
 30
0.0
 10
63.78387609371404
 20
84.02055722359826
 30
0.0
 10
63.76191326385022
 20
84.02055722359826
 30
0.0
 10
63.7451693440473
 20
84.02055722359826
 30
0.0
  0
SPLINE
  5
2E6
330
6C
100
AcDbEntity
  8
Visible (ISO)
100
AcDbSpline
210
0.0
220
0.0
230
1.0
 70
    24
 71
     3
 72
     8
 73
     4
 74
     0
 42
0.0000000001
 43
0.0000000001
 40
-0.0681040403560093
 40
-0.0681040403560093
 40
-0.0681040403560093
 40
-0.0681040403560093
 40
-0.0368944946683291
 40
-0.0368944946683291
 40
-0.0368944946683291
 40
-0.0368944946683291
 10
70.0768144147611
 20
84.02055722359826
 30
0.0
 10
70.0768144147611
 20
84.02055722359826
 30
0.0
 10
70.07195043666742
 20
84.02055722359826
 30
0.0
 10
70.06344311055406
 20
84.02055722359826
 30
0.0
  0
LINE
  5
2E7
330
6C
100
AcDbEntity
  8
Visible (ISO)
100
AcDbLine
 10
70.0768144147611
 20
84.22055722359827
 30
0.0
 11
70.0768144147611
 21
84.02055722359826
 31
0.0
  0
SPLINE
  5
2E8
330
6C
100
AcDbEntity
  8
Visible (ISO)
100
AcDbSpline
210
0.0
220
0.0
230
1.0
 70
    24
 71
     3
 72
    10
 73
     6
 74
     0
 42
0.0000000001
 43
0.0000000001
 40
-0.0291387197770383
 40
-0.0291387197770383
 40
-0.0291387197770383
 40
-0.0291387197770383
 40
-0.0287526276404915
 40
-0.0287526276404915
 40
0.0
 40
0.0
 40
0.0
 40
0.0
 10
58.56101212475749
 20
84.02055722359826
 30
0.0
 10
58.56080860557708
 20
84.02055722359826
 30
0.0
 10
58.56060599937315
 20
84.02055722359826
 30
0.0
 10
58.54538381158257
 20
84.02055722359826
 30
0.0
 10
58.52697642509169
 20
84.02055722359826
 30
0.0
 10
58.52697642509169
 20
84.02055722359826
 30
0.0
  0
LINE
  5
2E9
330
6C
100
AcDbEntity
  8
Visible (ISO)
100
AcDbLine
 10
58.52697642509169
 20
84.22055722359827
 30
0.0
 11
58.52697642509169
 21
84.02055722359826
 31
0.0
  0
LINE
  5
2EA
330
6C
100
AcDbEntity
  8
Visible (ISO)
100
AcDbLine
 10
55.09079338825973
 20
84.22055722359827
 30
0.0
 11
55.09079338825973
 21
84.02055722359826
 31
0.0
  0
SPLINE
  5
2EB
330
6C
100
AcDbEntity
  8
Visible (ISO)
100
AcDbSpline
210
0.0
220
0.0
230
1.0
 70
    24
 71
     3
 72
     8
 73
     4
 74
     0
 42
0.0000000001
 43
0.0000000001
 40
-0.048952482067188
 40
-0.048952482067188
 40
-0.048952482067188
 40
-0.048952482067188
 40
-0.0390773234572342
 40
-0.0390773234572342
 40
-0.0390773234572342
 40
-0.0390773234572342
 10
55.09079338825973
 20
84.02055722359826
 30
0.0
 10
55.09079338825973
 20
84.02055722359826
 30
0.0
 10
55.08657912281315
 20
84.02055722359826
 30
0.0
 10
55.07681433874378
 20
84.02055722359826
 30
0.0
  0
SPLINE
  5
2EC
330
6C
100
AcDbEntity
  8
Visible (ISO)
100
AcDbSpline
210
0.0
220
0.0
230
1.0
 70
    24
 71
     3
 72
     8
 73
     4
 74
     0
 42
0.0000000001
 43
0.0000000001
 40
-0.0038607632877575
 40
-0.0038607632877575
 40
-0.0038607632877575
 40
-0.0038607632877575
 40
0.0
 40
0.0
 40
0.0
 40
0.0
 10
63.5312310438887
 20
84.02055722359826
 30
0.0
 10
63.53040455199565
 20
84.02055722359826
 30
0.0
 10
63.53001536535979
 20
84.02055722359826
 30
0.0
 10
63.53001536535979
 20
84.02055722359826
 30
0.0
  0
SPLINE
  5
2ED
330
6C
100
AcDbEntity
  8
Visible (ISO)
100
AcDbSpline
210
0.0
220
0.0
230
1.0
 70
    24
 71
     3
 72
     8
 73
     4
 74
     0
 42
0.0000000001
 43
0.0000000001
 40
-0.1354645200169069
 40
-0.1354645200169069
 40
-0.1354645200169069
 40
-0.1354645200169069
 40
-0.1293099543798316
 40
-0.1293099543798316
 40
-0.1293099543798316
 40
-0.1293099543798316
 10
65.09200894444568
 20
84.02055722359826
 30
0.0
 10
65.09200894444568
 20
84.02055722359826
 30
0.0
 10
65.09162055139615
 20
84.02055722359826
 30
0.0
 10
65.09079334258082
 20
84.02055722359826
 30
0.0
  0
LINE
  5
2EE
330
6C
100
AcDbEntity
  8
Visible (ISO)
100
AcDbLine
 10
63.53001536535979
 20
84.22055722359827
 30
0.0
 11
63.53001536535979
 21
84.02055722359826
 31
0.0
  0
LINE
  5
2EF
330
6C
100
AcDbEntity
  8
Visible (ISO)
100
AcDbLine
 10
65.09200894444568
 20
84.22055722359827
 30
0.0
 11
65.09200894444568
 21
84.02055722359826
 31
0.0
  0
LINE
  5
2F0
330
6C
100
AcDbEntity
  8
Visible (ISO)
100
AcDbLine
 10
48.81101467652074
 20
84.02055722359826
 30
0.0
 11
48.62179004661449
 21
84.02055722359826
 31
0.0
  0
LINE
  5
2F1
330
6C
100
AcDbEntity
  8
Visible (ISO)
100
AcDbLine
 10
48.62179004661449
 20
84.22055722359827
 30
0.0
 11
48.62179004661449
 21
84.02055722359826
 31
0.0
  0
SPLINE
  5
2F2
330
6C
100
AcDbEntity
  8
Visible (ISO)
100
AcDbSpline
210
0.0
220
0.0
230
1.0
 70
    24
 71
     3
 72
    10
 73
     6
 74
     0
 42
0.0000000001
 43
0.0000000001
 40
-0.0875120674997932
 40
-0.0875120674997932
 40
-0.0875120674997932
 40
-0.0875120674997932
 40
-0.0321396767789619
 40
-0.0321396767789619
 40
0.0
 40
0.0
 40
0.0
 40
0.0
 10
48.62179004661449
 20
84.02055722359824
 30
0.0
 10
48.59305210827344
 20
84.02055722359824
 30
0.0
 10
48.5721439445722
 20
84.02055722359824
 30
0.0
 10
48.54782698337647
 20
84.02055722359824
 30
0.0
 10
48.52940754699539
 20
84.02055722359824
 30
0.0
 10
48.52940754699539
 20
84.02055722359824
 30
0.0
  0
LINE
  5
2F3
330
6C
100
AcDbEntity
  8
Visible (ISO)
100
AcDbLine
 10
48.52940754699539
 20
84.22055722359827
 30
0.0
 11
48.52940754699539
 21
84.02055722359826
 31
0.0
  0
LINE
  5
2F4
330
6C
100
AcDbEntity
  8
Visible (ISO)
100
AcDbLine
 10
50.09261668528679
 20
84.22055722359827
 30
0.0
 11
50.09261668528679
 21
84.02055722359826
 31
0.0
  0
SPLINE
  5
2F5
330
6C
100
AcDbEntity
  8
Visible (ISO)
100
AcDbSpline
210
0.0
220
0.0
230
1.0
 70
    24
 71
     3
 72
    10
 73
     6
 74
     0
 42
0.0000000001
 43
0.0000000001
 40
-0.0462843141062765
 40
-0.0462843141062765
 40
-0.0462843141062765
 40
-0.0462843141062765
 40
-0.019282100499294
 40
-0.019282100499294
 40
0.0
 40
0.0
 40
0.0
 40
0.0
 10
50.09261668528679
 20
84.02055722359824
 30
0.0
 10
50.09261668528679
 20
84.02055722359824
 30
0.0
 10
50.08174269391037
 20
84.02055722359824
 30
0.0
 10
50.05141755481588
 20
84.02055722359824
 30
0.0
 10
50.03064377027429
 20
84.02055722359824
 30
0.0
 10
50.00023418566771
 20
84.02055722359824
 30
0.0
  0
LINE
  5
2F6
330
6C
100
AcDbEntity
  8
Visible (ISO)
100
AcDbLine
 10
50.00023418566769
 20
84.22055722359827
 30
0.0
 11
50.00023418566771
 21
84.02055722359826
 31
0.0
  0
LINE
  5
2F7
330
6C
100
AcDbEntity
  8
Visible (ISO)
100
AcDbLine
 10
50.00023418566771
 20
84.02055722359826
 30
0.0
 11
49.81101467652074
 21
84.02055722359826
 31
0.0
  0
MTEXT
  5
2F8
330
6C
100
AcDbEntity
  8
Symbol (ISO)
100
AcDbMText
 10
54.08484011528376
 20
180.7715573235945
 30
0.0
 40
3.499999940395355
 41
0.0
 71
     7
 72
     1
  1
Front
  7
Label Text (ISO)
 73
     1
 44
1.159999966621397
1001
ACAD
1000
MTEXTBEGIN
1070
    73
1070
     1
1070
    44
1040
1.159999966621397
1070
    74
1070
     0
1000
MTEXTEND
  0
ARC
  5
2F9
330
6C
100
AcDbEntity
  8
Visible (ISO)
100
AcDbCircle
 10
47.90616020354954
 20
228.510987462473
 30
0.0
 40
0.2000000000000006
100
AcDbArc
 50
280.6837085579996
 51
100.6837085579995
  0
ARC
  5
2FA
330
6C
100
AcDbEntity
  8
Visible (ISO)
100
AcDbCircle
 10
51.24737443717285
 20
227.3346628361347
 30
0.0
 40
0.2
100
AcDbArc
 50
43.47973425234878
 51
217.8876828597633
  0
ARC
  5
2FB
330
6C
100
AcDbEntity
  8
Visible (ISO)
100
AcDbCircle
 10
50.58911929167827
 20
230.8238174849615
 30
0.0
 40
0.2000000000000004
100
AcDbArc
 50
163.4797342523509
 51
337.887682859767
  0
ARC
  5
2FC
330
6C
100
AcDbEntity
  8
Visible (ISO)
100
AcDbCircle
 10
66.87427523671272
 20
228.0010244656764
 30
0.0
 40
0.2000000000000004
100
AcDbArc
 50
295.8070608606099
 51
115.8070608606099
  0
ARC
  5
2FD
330
6C
100
AcDbEntity
  8
Visible (ISO)
100
AcDbCircle
 10
70.40667184131534
 20
227.7371562991829
 30
0.0
 40
0.2000000000000004
100
AcDbArc
 50
58.60308655495475
 51
233.0110351623723
  0
ARC
  5
2FE
330
6C
100
AcDbEntity
  8
Visible (ISO)
100
AcDbCircle
 10
68.86090102574995
 20
230.9337314329388
 30
0.0
 40
0.2000000000000007
100
AcDbArc
 50
178.6030865549627
 51
353.01103516238
  0
ARC
  5
2FF
330
6C
100
AcDbEntity
  8
Visible (ISO)
100
AcDbCircle
 10
49.91101467655337
 20
228.8892182678248
 30
0.0
 40
2.049999999999998
100
AcDbArc
 50
316.2757599486409
 51
65.09165716347216
  0
ARC
  5
300
330
6C
100
AcDbEntity
  8
Visible (ISO)
100
AcDbCircle
 10
49.91101467655337
 20
228.8892182678248
 30
0.0
 40
2.049999999999999
100
AcDbArc
 50
76.27575994863993
 51
185.0849707398726
  0
ARC
  5
301
330
6C
100
AcDbEntity
  8
Visible (ISO)
100
AcDbCircle
 10
49.91101467655337
 20
228.8892182678248
 30
0.0
 40
2.05
100
AcDbArc
 50
196.2824463722762
 51
305.0916571634719
  0
ARC
  5
302
330
6C
100
AcDbEntity
  8
Visible (ISO)
100
AcDbCircle
 10
68.71101467655325
 20
228.8892182678248
 30
0.0
 40
2.049999999999998
100
AcDbArc
 50
331.3991122512504
 51
80.21500946608288
  0
ARC
  5
303
330
6C
100
AcDbEntity
  8
Visible (ISO)
100
AcDbCircle
 10
68.71101467655325
 20
228.8892182678248
 30
0.0
 40
2.049999999999998
100
AcDbArc
 50
91.39911225125116
 51
200.2083230424841
  0
ARC
  5
304
330
6C
100
AcDbEntity
  8
Visible (ISO)
100
AcDbCircle
 10
68.71101467655325
 20
228.8892182678248
 30
0.0
 40
2.05
100
AcDbArc
 50
211.4057986748869
 51
320.2150094660831
  0
ARC
  5
305
330
6C
100
AcDbEntity
  8
Visible (ISO)
100
AcDbCircle
 10
49.91101467655338
 20
228.8892182678249
 30
0.0
 40
2.050000000000017
100
AcDbArc
 50
185.0849707398736
 51
196.2824463722771
  0
LINE
  5
306
330
6C
100
AcDbEntity
  8
Visible (ISO)
100
AcDbLine
 10
53.8189920701566
 20
226.5515828936945
 30
0.0
 11
53.12282793958196
 21
227.0074589199014
 31
0.0
  0
LINE
  5
307
330
6C
100
AcDbEntity
  8
Visible (ISO)
100
AcDbLine
 10
53.12282793958196
 20
227.0074589199014
 30
0.0
 11
53.62411376887735
 21
226.2539860134488
 31
0.0
  0
LINE
  5
308
330
6C
100
AcDbEntity
  8
Visible (ISO)
100
AcDbLine
 10
53.62411376887735
 20
226.2539860134488
 30
0.0
 11
53.37703592261254
 21
225.8766756831374
 31
0.0
  0
LINE
  5
309
330
6C
100
AcDbEntity
  8
Visible (ISO)
100
AcDbLine
 10
53.37703592261254
 20
225.8766756831374
 30
0.0
 11
52.90249271109144
 21
226.663256809842
 31
0.0
  0
LINE
  5
30A
330
6C
100
AcDbEntity
  8
Visible (ISO)
100
AcDbLine
 10
52.90249271109144
 20
226.663256809842
 30
0.0
 11
51.52610102209624
 21
227.0659624873454
 31
0.0
  0
LINE
  5
30B
330
6C
100
AcDbEntity
  8
Visible (ISO)
100
AcDbLine
 10
51.52610102209624
 20
227.0659624873454
 30
0.0
 11
51.75577902003252
 21
227.4167016676349
 31
0.0
  0
LINE
  5
30C
330
6C
100
AcDbEntity
  8
Visible (ISO)
100
AcDbLine
 10
51.75577902003252
 20
227.4167016676349
 30
0.0
 11
52.63683857850921
 21
227.1156296652648
 31
0.0
  0
LINE
  5
30D
330
6C
100
AcDbEntity
  8
Visible (ISO)
100
AcDbLine
 10
52.63683857850921
 20
227.1156296652648
 30
0.0
 11
52.4231209890044
 21
227.4656549258853
 31
0.0
  0
LINE
  5
30E
330
6C
100
AcDbEntity
  8
Visible (ISO)
100
AcDbLine
 10
52.4231209890044
 20
227.4656549258853
 30
0.0
 11
51.97849707863738
 21
227.7568123879157
 31
0.0
  0
LINE
  5
30F
330
6C
100
AcDbEntity
  8
Visible (ISO)
100
AcDbLine
 10
51.97849707863738
 20
227.7568123879157
 30
0.0
 11
52.16525545069669
 21
228.0420093981511
 31
0.0
  0
LINE
  5
310
330
6C
100
AcDbEntity
  8
Visible (ISO)
100
AcDbLine
 10
52.16525545069669
 20
228.0420093981511
 30
0.0
 11
54.00575044221589
 21
226.8367799039299
 31
0.0
  0
LINE
  5
311
330
6C
100
AcDbEntity
  8
Visible (ISO)
100
AcDbLine
 10
54.00575044221589
 20
226.8367799039299
 30
0.0
 11
53.8189920701566
 21
226.5515828936945
 31
0.0
  0
SPLINE
  5
312
330
6C
100
AcDbEntity
  8
Visible (ISO)
100
AcDbSpline
210
0.0
220
0.0
230
1.0
 70
     8
 71
     2
 72
     8
 73
     5
 74
     0
 42
0.0000000001
 43
0.0000000001
 40
0.0
 40
0.0
 40
0.0
 40
1.0
 40
2.0
 40
3.0
 40
3.0
 40
3.0
 10
52.93946687916585
 20
228.1474726278865
 30
0.0
 10
52.69203804922028
 20
228.1931406647609
 30
0.0
 10
52.364382068422
 20
228.3437100949182
 30
0.0
 10
52.20563183755604
 20
228.5470374786449
 30
0.0
 10
52.2151741697966
 20
228.6949494341327
 30
0.0
  0
SPLINE
  5
313
330
6C
100
AcDbEntity
  8
Visible (ISO)
100
AcDbSpline
210
0.0
220
0.0
230
1.0
 70
     8
 71
     2
 72
     8
 73
     5
 74
     0
 42
0.0000000001
 43
0.0000000001
 40
0.0
 40
0.0
 40
0.0
 40
1.0
 40
2.0
 40
3.0
 40
3.0
 40
3.0
 10
52.2151741697966
 20
228.6949494341327
 30
0.0
 10
52.22662496848528
 20
228.872443780718
 30
0.0
 10
52.45053718956056
 20
229.0871552135875
 30
0.0
 10
52.98520100207099
 20
229.2181642726216
 30
0.0
 10
53.39301539363011
 20
229.191854699444
 30
0.0
  0
SPLINE
  5
314
330
6C
100
AcDbEntity
  8
Visible (ISO)
100
AcDbSpline
210
0.0
220
0.0
230
1.0
 70
     8
 71
     2
 72
     7
 73
     4
 74
     0
 42
0.0000000001
 43
0.0000000001
 40
0.0
 40
0.0
 40
0.0
 40
1.0
 40
2.0
 40
2.0
 40
2.0
 10
53.39301539363011
 20
229.191854699444
 30
0.0
 10
53.93817660099933
 20
229.1566843891859
 30
0.0
 10
54.50480963175865
 20
228.8294391901508
 30
0.0
 10
54.48763343372565
 20
228.5631976702728
 30
0.0
  0
SPLINE
  5
315
330
6C
100
AcDbEntity
  8
Visible (ISO)
100
AcDbSpline
210
0.0
220
0.0
230
1.0
 70
     8
 71
     2
 72
     7
 73
     4
 74
     0
 42
0.0000000001
 43
0.0000000001
 40
0.0
 40
0.0
 40
0.0
 40
1.0
 40
2.0
 40
2.0
 40
2.0
 10
54.48763343372565
 20
228.5631976702728
 30
0.0
 10
54.47427416858886
 20
228.3561209325899
 30
0.0
 10
54.12289867622117
 20
228.1390235019632
 30
0.0
 10
53.77268148092846
 20
228.104328068953
 30
0.0
  0
LINE
  5
316
330
6C
100
AcDbEntity
  8
Visible (ISO)
100
AcDbLine
 10
53.77268148092846
 20
228.104328068953
 30
0.0
 11
53.65891802353461
 21
228.4129661348161
 31
0.0
  0
SPLINE
  5
317
330
6C
100
AcDbEntity
  8
Visible (ISO)
100
AcDbSpline
210
0.0
220
0.0
230
1.0
 70
     8
 71
     2
 72
     6
 73
     3
 74
     0
 42
0.0000000001
 43
0.0000000001
 40
0.0
 40
0.0
 40
0.0
 40
1.0
 40
1.0
 40
1.0
 10
53.65891802353461
 20
228.4129661348161
 30
0.0
 10
53.75918456972904
 20
228.4213503358605
 30
0.0
 10
53.80689805559896
 20
228.4373685685762
 30
0.0
  0
SPLINE
  5
318
330
6C
100
AcDbEntity
  8
Visible (ISO)
100
AcDbSpline
210
0.0
220
0.0
230
1.0
 70
     8
 71
     2
 72
     7
 73
     4
 74
     0
 42
0.0000000001
 43
0.0000000001
 40
0.0
 40
0.0
 40
0.0
 40
1.0
 40
2.0
 40
2.0
 40
2.0
 10
53.80689805559896
 20
228.4373685685762
 30
0.0
 10
53.88685223663004
 20
228.4597941275539
 30
0.0
 10
53.97668979629994
 20
228.5367494557597
 30
0.0
 10
53.97996145306811
 20
228.5874621262126
 30
0.0
  0
SPLINE
  5
319
330
6C
100
AcDbEntity
  8
Visible (ISO)
100
AcDbSpline
210
0.0
220
0.0
230
1.0
 70
     8
 71
     2
 72
     6
 73
     3
 74
     0
 42
0.0000000001
 43
0.0000000001
 40
0.0
 40
0.0
 40
0.0
 40
1.0
 40
1.0
 40
1.0
 10
53.97996145306811
 20
228.5874621262126
 30
0.0
 10
53.98745899982857
 20
228.7036786626672
 30
0.0
 10
53.80546579342933
 20
228.7769525476146
 30
0.0
  0
SPLINE
  5
31A
330
6C
100
AcDbEntity
  8
Visible (ISO)
100
AcDbSpline
210
0.0
220
0.0
230
1.0
 70
     8
 71
     2
 72
     6
 73
     3
 74
     0
 42
0.0000000001
 43
0.0000000001
 40
0.0
 40
0.0
 40
0.0
 40
1.0
 40
1.0
 40
1.0
 10
53.80546579342933
 20
228.7769525476146
 30
0.0
 10
53.67111799632343
 20
228.832299899277
 30
0.0
 10
53.3752940853479
 20
228.8513845637581
 30
0.0
  0
SPLINE
  5
31B
330
6C
100
AcDbEntity
  8
Visible (ISO)
100
AcDbSpline
210
0.0
220
0.0
230
1.0
 70
     8
 71
     2
 72
     7
 73
     4
 74
     0
 42
0.0000000001
 43
0.0000000001
 40
0.0
 40
0.0
 40
0.0
 40
1.0
 40
2.0
 40
2.0
 40
2.0
 10
53.3752940853479
 20
228.8513845637581
 30
0.0
 10
53.00974025249956
 20
228.8749677562955
 30
0.0
 10
52.73204776805407
 20
228.7804261118089
 30
0.0
 10
52.7256407735497
 20
228.6811137988386
 30
0.0
  0
SPLINE
  5
31C
330
6C
100
AcDbEntity
  8
Visible (ISO)
100
AcDbSpline
210
0.0
220
0.0
230
1.0
 70
     8
 71
     2
 72
     7
 73
     4
 74
     0
 42
0.0000000001
 43
0.0000000001
 40
0.0
 40
0.0
 40
0.0
 40
1.0
 40
2.0
 40
2.0
 40
2.0
 10
52.7256407735497
 20
228.6811137988386
 30
0.0
 10
52.71937009807731
 20
228.5839145138038
 30
0.0
 10
52.93060498093352
 20
228.4705613405366
 30
0.0
 10
53.13829523719984
 20
228.4338224490769
 30
0.0
  0
LINE
  5
31D
330
6C
100
AcDbEntity
  8
Visible (ISO)
100
AcDbLine
 10
53.13829523719984
 20
228.4338224490769
 30
0.0
 11
52.93946687916585
 21
228.1474726278865
 31
0.0
  0
ARC
  5
31E
330
6C
100
AcDbEntity
  8
Visible (ISO)
100
AcDbCircle
 10
49.91101467655336
 20
228.8892182678249
 30
0.0
 40
3.27612999223224
100
AcDbArc
 50
194.1836568438187
 51
235.6837085560559
  0
LINE
  5
31F
330
6C
100
AcDbEntity
  8
Visible (ISO)
100
AcDbLine
 10
48.0640606233501
 20
226.1833379209952
 30
0.0
 11
47.83855625599199
 21
225.852962709603
 31
0.0
  0
ARC
  5
320
330
6C
100
AcDbEntity
  8
Visible (ISO)
100
AcDbCircle
 10
49.9110146765533
 20
228.8892182678249
 30
0.0
 40
3.276129992232176
100
AcDbArc
 50
163.4093907589661
 51
187.1837602682932
  0
ARC
  5
321
330
6C
100
AcDbEntity
  8
Visible (ISO)
100
AcDbCircle
 10
49.91101467655337
 20
228.8892182678249
 30
0.0
 40
3.67612999223224
100
AcDbArc
 50
162.4092559857581
 51
235.6837085560563
  0
LINE
  5
322
330
6C
100
AcDbEntity
  8
Visible (ISO)
100
AcDbLine
 10
46.40678235188025
 20
230.0002032067444
 30
0.0
 11
46.04936588555101
 21
230.1723438919676
 31
0.0
  0
LINE
  5
323
330
6C
100
AcDbEntity
  8
Visible (ISO)
100
AcDbLine
 10
47.13050725735751
 20
229.651639240396
 30
0.0
 11
46.77127198802995
 21
229.8246559065096
 31
0.0
  0
LINE
  5
324
330
6C
100
AcDbEntity
  8
Visible (ISO)
100
AcDbLine
 10
47.04088002758401
 20
230.8482874592486
 30
0.0
 11
47.13050725735751
 21
229.651639240396
 31
0.0
  0
LINE
  5
325
330
6C
100
AcDbEntity
  8
Visible (ISO)
100
AcDbLine
 10
46.04936588555101
 20
230.1723438919676
 30
0.0
 11
47.04088002758401
 21
230.8482874592486
 31
0.0
  0
LINE
  5
326
330
6C
100
AcDbEntity
  8
Visible (ISO)
100
AcDbLine
 10
46.66060169699977
 20
228.4795315724671
 30
0.0
 11
47.86908276106025
 21
228.7075205723006
 31
0.0
  0
LINE
  5
327
330
6C
100
AcDbEntity
  8
Visible (ISO)
100
AcDbLine
 10
47.9432376460388
 20
228.3144543526457
 30
0.0
 11
46.734756581965
 21
228.0864653528096
 31
0.0
  0
LINE
  5
328
330
6C
100
AcDbEntity
  8
Visible (ISO)
100
AcDbLine
 10
52.57733847077236
 20
232.5765929917391
 30
0.0
 11
51.58843700214649
 21
231.2458638742092
 31
0.0
  0
LINE
  5
329
330
6C
100
AcDbEntity
  8
Visible (ISO)
100
AcDbLine
 10
51.58843700214649
 20
231.2458638742092
 30
0.0
 11
52.01331858501043
 21
230.9301226645586
 31
0.0
  0
LINE
  5
32A
330
6C
100
AcDbEntity
  8
Visible (ISO)
100
AcDbLine
 10
52.01331858501043
 20
230.9301226645586
 30
0.0
 11
51.68999958632816
 21
230.4950439237059
 31
0.0
  0
LINE
  5
32B
330
6C
100
AcDbEntity
  8
Visible (ISO)
100
AcDbLine
 10
51.68999958632816
 20
230.4950439237059
 30
0.0
 11
50.99149426409983
 21
231.0141224723716
 31
0.0
  0
LINE
  5
32C
330
6C
100
AcDbEntity
  8
Visible (ISO)
100
AcDbLine
 10
50.99149426409983
 20
231.0141224723716
 30
0.0
 11
52.30371473140801
 21
232.7799303307541
 31
0.0
  0
LINE
  5
32D
330
6C
100
AcDbEntity
  8
Visible (ISO)
100
AcDbLine
 10
52.30371473140801
 20
232.7799303307541
 30
0.0
 11
52.57733847077236
 21
232.5765929917391
 31
0.0
  0
SPLINE
  5
32E
330
6C
100
AcDbEntity
  8
Visible (ISO)
100
AcDbSpline
210
0.0
220
0.0
230
1.0
 70
     8
 71
     2
 72
     7
 73
     4
 74
     0
 42
0.0000000001
 43
0.0000000001
 40
-2.0
 40
-2.0
 40
-2.0
 40
-1.0
 40
0.0
 40
0.0
 40
0.0
 10
52.91128908354306
 20
230.597180936815
 30
0.0
 10
53.21430743234202
 20
230.7439000007239
 30
0.0
 10
53.53174741287585
 20
230.758800304122
 30
0.0
 10
53.576039960471
 20
230.6673230667487
 30
0.0
  0
SPLINE
  5
32F
330
6C
100
AcDbEntity
  8
Visible (ISO)
100
AcDbSpline
210
0.0
220
0.0
230
1.0
 70
     8
 71
     2
 72
     7
 73
     4
 74
     0
 42
0.0000000001
 43
0.0000000001
 40
-2.0
 40
-2.0
 40
-2.0
 40
-1.0
 40
0.0
 40
0.0
 40
0.0
 10
53.576039960471
 20
230.6673230667487
 30
0.0
 10
53.62310079229082
 20
230.5701285020396
 30
0.0
 10
53.41835820948562
 20
230.332192179582
 30
0.0
 10
53.13820917002999
 20
230.1965462525719
 30
0.0
  0
SPLINE
  5
330
330
6C
100
AcDbEntity
  8
Visible (ISO)
100
AcDbSpline
210
0.0
220
0.0
230
1.0
 70
     8
 71
     2
 72
     7
 73
     4
 74
     0
 42
0.0000000001
 43
0.0000000001
 40
-2.0
 40
-2.0
 40
-2.0
 40
-1.0
 40
0.0
 40
0.0
 40
0.0
 10
53.13820917002999
 20
230.1965462525719
 30
0.0
 10
52.80660418455191
 20
230.0359857675395
 30
0.0
 10
52.49672705417037
 20
230.020042196809
 30
0.0
 10
52.4496662223505
 20
230.117236761518
 30
0.0
  0
SPLINE
  5
331
330
6C
100
AcDbEntity
  8
Visible (ISO)
100
AcDbSpline
210
0.0
220
0.0
230
1.0
 70
     8
 71
     2
 72
     7
 73
     4
 74
     0
 42
0.0000000001
 43
0.0000000001
 40
-2.0
 40
-2.0
 40
-2.0
 40
-1.0
 40
0.0
 40
0.0
 40
0.0
 10
52.4496662223505
 20
230.117236761518
 30
0.0
 10
52.40260539053068
 20
230.2144313262271
 30
0.0
 10
52.61208228630136
 20
230.4523073957225
 30
0.0
 10
52.91128908354306
 20
230.597180936815
 30
0.0
  0
SPLINE
  5
332
330
6C
100
AcDbEntity
  8
Visible (ISO)
100
AcDbSpline
210
0.0
220
0.0
230
1.0
 70
     8
 71
     2
 72
     7
 73
     4
 74
     0
 42
0.0000000001
 43
0.0000000001
 40
0.0
 40
0.0
 40
0.0
 40
1.0
 40
2.0
 40
2.0
 40
2.0
 10
54.0400662360814
 20
230.8896483131706
 30
0.0
 10
54.15910245774334
 20
230.6438032377299
 30
0.0
 10
53.75750037407197
 20
230.1176384200491
 30
0.0
 10
53.27915065364094
 20
229.8860253065829
 30
0.0
  0
SPLINE
  5
333
330
6C
100
AcDbEntity
  8
Visible (ISO)
100
AcDbSpline
210
0.0
220
0.0
230
1.0
 70
     8
 71
     2
 72
     8
 73
     5
 74
     0
 42
0.0000000001
 43
0.0000000001
 40
0.0
 40
0.0
 40
0.0
 40
1.0
 40
2.0
 40
3.0
 40
3.0
 40
3.0
 10
53.27915065364094
 20
229.8860253065829
 30
0.0
 10
52.93229946193396
 20
229.7180827302846
 30
0.0
 10
52.43196525961574
 20
229.6193316446617
 30
0.0
 10
52.07717408504155
 20
229.7204426519102
 30
0.0
 10
51.99689384252534
 20
229.8862451446493
 30
0.0
  0
SPLINE
  5
334
330
6C
100
AcDbEntity
  8
Visible (ISO)
100
AcDbSpline
210
0.0
220
0.0
230
1.0
 70
     8
 71
     2
 72
     8
 73
     5
 74
     0
 42
0.0000000001
 43
0.0000000001
 40
0.0
 40
0.0
 40
0.0
 40
1.0
 40
2.0
 40
3.0
 40
3.0
 40
3.0
 10
51.99689384252534
 20
229.8862451446493
 30
0.0
 10
51.9156908386009
 20
230.0539534131669
 30
0.0
 10
52.0230201638585
 20
230.376466905429
 30
0.0
 10
52.41968485666793
 20
230.7379137836893
 30
0.0
 10
52.76653604837491
 20
230.9058563599876
 30
0.0
  0
SPLINE
  5
335
330
6C
100
AcDbEntity
  8
Visible (ISO)
100
AcDbSpline
210
0.0
220
0.0
230
1.0
 70
     8
 71
     2
 72
     7
 73
     4
 74
     0
 42
0.0000000001
 43
0.0000000001
 40
0.0
 40
0.0
 40
0.0
 40
1.0
 40
2.0
 40
2.0
 40
2.0
 10
52.76653604837491
 20
230.9058563599876
 30
0.0
 10
53.25060309614177
 20
231.1402377576786
 30
0.0
 10
53.92287553723591
 20
231.1316818370539
 30
0.0
 10
54.0400662360814
 20
230.8896483131706
 30
0.0
  0
ARC
  5
336
330
6C
100
AcDbEntity
  8
Visible (ISO)
100
AcDbCircle
 10
68.71101467655323
 20
228.8892182678249
 30
0.0
 40
2.04999999999998
100
AcDbArc
 50
200.2083230424832
 51
211.4057986748861
  0
LINE
  5
337
330
6C
100
AcDbEntity
  8
Visible (ISO)
100
AcDbLine
 10
73.09352901757633
 20
227.6521271224251
 30
0.0
 11
72.30253843545627
 21
227.9105866878628
 31
0.0
  0
LINE
  5
338
330
6C
100
AcDbEntity
  8
Visible (ISO)
100
AcDbLine
 10
72.30253843545627
 20
227.9105866878628
 30
0.0
 11
72.98304248578616
 21
227.3139937438088
 31
0.0
  0
LINE
  5
339
330
6C
100
AcDbEntity
  8
Visible (ISO)
100
AcDbLine
 10
72.98304248578616
 20
227.3139937438088
 30
0.0
 11
72.84296134726647
 21
226.8852889244919
 31
0.0
  0
LINE
  5
33A
330
6C
100
AcDbEntity
  8
Visible (ISO)
100
AcDbLine
 10
72.84296134726647
 20
226.8852889244919
 30
0.0
 11
72.17963585284753
 21
227.520820526336
 31
0.0
  0
LINE
  5
33B
330
6C
100
AcDbEntity
  8
Visible (ISO)
100
AcDbLine
 10
72.17963585284753
 20
227.520820526336
 30
0.0
 11
70.74584849507392
 21
227.5504812228398
 31
0.0
  0
LINE
  5
33C
330
6C
100
AcDbEntity
  8
Visible (ISO)
100
AcDbLine
 10
70.74584849507392
 20
227.5504812228398
 30
0.0
 11
70.87606476468375
 21
227.9489955619232
 31
0.0
  0
LINE
  5
33D
330
6C
100
AcDbEntity
  8
Visible (ISO)
100
AcDbLine
 10
70.87606476468375
 20
227.9489955619232
 30
0.0
 11
71.80515911739586
 21
227.8882174412479
 31
0.0
  0
LINE
  5
33E
330
6C
100
AcDbEntity
  8
Visible (ISO)
100
AcDbLine
 10
71.80515911739586
 20
227.8882174412479
 30
0.0
 11
71.50752245597174
 21
228.1703615691552
 31
0.0
  0
LINE
  5
33F
330
6C
100
AcDbEntity
  8
Visible (ISO)
100
AcDbLine
 10
71.50752245597174
 20
228.1703615691552
 30
0.0
 11
71.00233508672966
 21
228.3354337089131
 31
0.0
  0
LINE
  5
340
330
6C
100
AcDbEntity
  8
Visible (ISO)
100
AcDbLine
 10
71.00233508672966
 20
228.3354337089131
 30
0.0
 11
71.10821801302859
 21
228.6594781967536
 31
0.0
  0
LINE
  5
341
330
6C
100
AcDbEntity
  8
Visible (ISO)
100
AcDbLine
 10
71.10821801302859
 20
228.6594781967536
 30
0.0
 11
73.19941194387526
 21
227.9761716102655
 31
0.0
  0
LINE
  5
342
330
6C
100
AcDbEntity
  8
Visible (ISO)
100
AcDbLine
 10
73.19941194387526
 20
227.9761716102655
 30
0.0
 11
73.09352901757633
 21
227.6521271224251
 31
0.0
  0
SPLINE
  5
343
330
6C
100
AcDbEntity
  8
Visible (ISO)
100
AcDbSpline
210
0.0
220
0.0
230
1.0
 70
     8
 71
     2
 72
     8
 73
     5
 74
     0
 42
0.0000000001
 43
0.0000000001
 40
0.0
 40
0.0
 40
0.0
 40
1.0
 40
2.0
 40
3.0
 40
3.0
 40
3.0
 10
71.82810054917848
 20
228.9632790574253
 30
0.0
 10
71.57732637738947
 20
228.9428117604927
 30
0.0
 10
71.22173504919098
 20
229.0026816390693
 30
0.0
 10
71.01543520864142
 20
229.1575494425741
 30
0.0
 10
70.98605712358352
 20
229.3028282462556
 30
0.0
  0
SPLINE
  5
344
330
6C
100
AcDbEntity
  8
Visible (ISO)
100
AcDbSpline
210
0.0
220
0.0
230
1.0
 70
     8
 71
     2
 72
     8
 73
     5
 74
     0
 42
0.0000000001
 43
0.0000000001
 40
0.0
 40
0.0
 40
0.0
 40
1.0
 40
2.0
 40
3.0
 40
3.0
 40
3.0
 10
70.98605712358352
 20
229.3028282462556
 30
0.0
 10
70.95080342151408
 20
229.4771628106734
 30
0.0
 10
71.11094296977441
 20
229.7428562566497
 30
0.0
 10
71.59290943661019
 20
230.0088207106713
 30
0.0
 10
71.99346385247499
 20
230.0898202880451
 30
0.0
  0
SPLINE
  5
345
330
6C
100
AcDbEntity
  8
Visible (ISO)
100
AcDbSpline
210
0.0
220
0.0
230
1.0
 70
     8
 71
     2
 72
     7
 73
     4
 74
     0
 42
0.0000000001
 43
0.0000000001
 40
0.0
 40
0.0
 40
0.0
 40
1.0
 40
2.0
 40
2.0
 40
2.0
 10
71.99346385247499
 20
230.0898202880451
 30
0.0
 10
72.5289200146155
 20
230.1980995158299
 30
0.0
 10
73.16130610422566
 20
230.0300214223536
 30
0.0
 10
73.21418665732983
 20
229.7685195757268
 30
0.0
  0
SPLINE
  5
346
330
6C
100
AcDbEntity
  8
Visible (ISO)
100
AcDbSpline
210
0.0
220
0.0
230
1.0
 70
     8
 71
     2
 72
     7
 73
     4
 74
     0
 42
0.0000000001
 43
0.0000000001
 40
0.0
 40
0.0
 40
0.0
 40
1.0
 40
2.0
 40
2.0
 40
2.0
 10
73.21418665732983
 20
229.7685195757268
 30
0.0
 10
73.25531597641084
 20
229.5651292505727
 30
0.0
 10
72.97275017392767
 20
229.2638775314268
 30
0.0
 10
72.64371423811041
 20
229.139012765014
 30
0.0
  0
LINE
  5
347
330
6C
100
AcDbEntity
  8
Visible (ISO)
100
AcDbLine
 10
72.64371423811041
 20
229.139012765014
 30
0.0
 11
72.45336777082247
 21
229.4072809187873
 31
0.0
  0
SPLINE
  5
348
330
6C
100
AcDbEntity
  8
Visible (ISO)
100
AcDbSpline
210
0.0
220
0.0
230
1.0
 70
     8
 71
     2
 72
     6
 73
     3
 74
     0
 42
0.0000000001
 43
0.0000000001
 40
0.0
 40
0.0
 40
0.0
 40
1.0
 40
1.0
 40
1.0
 10
72.45336777082247
 20
229.4072809187873
 30
0.0
 10
72.54797430193143
 20
229.4415340848372
 30
0.0
 10
72.58985617215245
 20
229.4694459006144
 30
0.0
  0
SPLINE
  5
349
330
6C
100
AcDbEntity
  8
Visible (ISO)
100
AcDbSpline
210
0.0
220
0.0
230
1.0
 70
     8
 71
     2
 72
     7
 73
     4
 74
     0
 42
0.0000000001
 43
0.0000000001
 40
0.0
 40
0.0
 40
0.0
 40
1.0
 40
2.0
 40
2.0
 40
2.0
 10
72.58985617215245
 20
229.4694459006144
 30
0.0
 10
72.66119046687339
 20
229.5119546662574
 30
0.0
 10
72.72783913587345
 20
229.6096831911987
 30
0.0
 10
72.71776664956789
 20
229.6594930667466
 30
0.0
  0
SPLINE
  5
34A
330
6C
100
AcDbEntity
  8
Visible (ISO)
100
AcDbSpline
210
0.0
220
0.0
230
1.0
 70
     8
 71
     2
 72
     6
 73
     3
 74
     0
 42
0.0000000001
 43
0.0000000001
 40
0.0
 40
0.0
 40
0.0
 40
1.0
 40
1.0
 40
1.0
 10
72.71776664956789
 20
229.6594930667466
 30
0.0
 10
72.69468386845097
 20
229.7736406982107
 30
0.0
 10
72.49987673715593
 20
229.7968951813774
 30
0.0
  0
SPLINE
  5
34B
330
6C
100
AcDbEntity
  8
Visible (ISO)
100
AcDbSpline
210
0.0
220
0.0
230
1.0
 70
     8
 71
     2
 72
     6
 73
     3
 74
     0
 42
0.0000000001
 43
0.0000000001
 40
0.0
 40
0.0
 40
0.0
 40
1.0
 40
1.0
 40
1.0
 10
72.49987673715593
 20
229.7968951813774
 30
0.0
 10
72.35574187843346
 20
229.8152745835522
 30
0.0
 10
72.06518427107042
 20
229.7565184134364
 30
0.0
  0
SPLINE
  5
34C
330
6C
100
AcDbEntity
  8
Visible (ISO)
100
AcDbSpline
210
0.0
220
0.0
230
1.0
 70
     8
 71
     2
 72
     7
 73
     4
 74
     0
 42
0.0000000001
 43
0.0000000001
 40
0.0
 40
0.0
 40
0.0
 40
1.0
 40
2.0
 40
2.0
 40
2.0
 10
72.06518427107042
 20
229.7565184134364
 30
0.0
 10
71.70613808482892
 20
229.6839125746505
 30
0.0
 10
71.46272882249793
 20
229.5201958391858
 30
0.0
 10
71.48245410817965
 20
229.4226514995711
 30
0.0
  0
SPLINE
  5
34D
330
6C
100
AcDbEntity
  8
Visible (ISO)
100
AcDbSpline
210
0.0
220
0.0
230
1.0
 70
     8
 71
     2
 72
     7
 73
     4
 74
     0
 42
0.0000000001
 43
0.0000000001
 40
0.0
 40
0.0
 40
0.0
 40
1.0
 40
2.0
 40
2.0
 40
2.0
 10
71.48245410817965
 20
229.4226514995711
 30
0.0
 10
71.50175970693197
 20
229.3271825714375
 30
0.0
 10
71.73525237517366
 20
229.2728659855508
 30
0.0
 10
71.94533466803235
 20
229.2915854652684
 30
0.0
  0
LINE
  5
34E
330
6C
100
AcDbEntity
  8
Visible (ISO)
100
AcDbLine
 10
71.94533466803235
 20
229.2915854652684
 30
0.0
 11
71.82810054917848
 21
228.9632790574253
 31
0.0
  0
ARC
  5
34F
330
6C
100
AcDbEntity
  8
Visible (ISO)
100
AcDbCircle
 10
68.71101467655325
 20
228.8892182678249
 30
0.0
 40
3.276129992232245
100
AcDbArc
 50
209.3070091464302
 51
250.8070608586673
  0
LINE
  5
350
330
6C
100
AcDbEntity
  8
Visible (ISO)
100
AcDbLine
 10
67.63398607736125
 20
225.7951857659714
 30
0.0
 11
67.50248597184093
 21
225.4174190095619
 31
0.0
  0
ARC
  5
351
330
6C
100
AcDbEntity
  8
Visible (ISO)
100
AcDbCircle
 10
68.71101467655325
 20
228.8892182678249
 30
0.0
 40
3.276129992232243
100
AcDbArc
 50
178.5327430615774
 51
202.3071125709036
  0
ARC
  5
352
330
6C
100
AcDbEntity
  8
Visible (ISO)
100
AcDbCircle
 10
68.71101467655325
 20
228.8892182678249
 30
0.0
 40
3.676129992232243
100
AcDbArc
 50
177.5326082883693
 51
250.8070608586669
  0
LINE
  5
353
330
6C
100
AcDbEntity
  8
Visible (ISO)
100
AcDbLine
 10
65.03829288127883
 20
229.0474786049475
 30
0.0
 11
64.6483438839561
 21
229.1204081970169
 31
0.0
  0
LINE
  5
354
330
6C
100
AcDbEntity
  8
Visible (ISO)
100
AcDbLine
 10
65.82789220815584
 20
228.8998050445517
 30
0.0
 11
65.43595885792178
 21
228.9731057570737
 31
0.0
  0
LINE
  5
355
330
6C
100
AcDbEntity
  8
Visible (ISO)
100
AcDbLine
 10
65.42916598024581
 20
230.0316254345326
 30
0.0
 11
65.82789220815584
 21
228.8998050445517
 31
0.0
  0
LINE
  5
356
330
6C
100
AcDbEntity
  8
Visible (ISO)
100
AcDbLine
 10
64.6483438839561
 20
229.1204081970169
 30
0.0
 11
65.42916598024581
 21
230.0316254345326
 31
0.0
  0
LINE
  5
357
330
6C
100
AcDbEntity
  8
Visible (ISO)
100
AcDbLine
 10
65.68006171399641
 20
227.6456942975004
 30
0.0
 11
66.78720682729468
 21
228.1810774914257
 31
0.0
  0
LINE
  5
358
330
6C
100
AcDbEntity
  8
Visible (ISO)
100
AcDbLine
 10
66.96134364613071
 20
227.8209714399274
 30
0.0
 11
65.85419853282025
 21
227.2855882459962
 31
0.0
  0
LINE
  5
359
330
6C
100
AcDbEntity
  8
Visible (ISO)
100
AcDbLine
 10
70.32296536369037
 20
233.144524356982
 30
0.0
 11
69.71549768780072
 21
231.6018808072138
 31
0.0
  0
LINE
  5
35A
330
6C
100
AcDbEntity
  8
Visible (ISO)
100
AcDbLine
 10
69.71549768780072
 20
231.6018808072138
 30
0.0
 11
70.20804032821203
 21
231.4079256105697
 31
0.0
  0
LINE
  5
35B
330
6C
100
AcDbEntity
  8
Visible (ISO)
100
AcDbLine
 10
70.20804032821203
 20
231.4079256105697
 30
0.0
 11
70.00943020684838
 21
230.9035619467885
 31
0.0
  0
LINE
  5
35C
330
6C
100
AcDbEntity
  8
Visible (ISO)
100
AcDbLine
 10
70.00943020684838
 20
230.9035619467885
 30
0.0
 11
69.1996901060122
 21
231.2224242900715
 31
0.0
  0
LINE
  5
35D
330
6C
100
AcDbEntity
  8
Visible (ISO)
100
AcDbLine
 10
69.1996901060122
 20
231.2224242900715
 30
0.0
 11
70.00576790326549
 21
233.2694315036209
 31
0.0
  0
LINE
  5
35E
330
6C
100
AcDbEntity
  8
Visible (ISO)
100
AcDbLine
 10
70.00576790326549
 20
233.2694315036209
 30
0.0
 11
70.32296536369037
 21
233.144524356982
 31
0.0
  0
SPLINE
  5
35F
330
6C
100
AcDbEntity
  8
Visible (ISO)
100
AcDbSpline
210
0.0
220
0.0
230
1.0
 70
     8
 71
     2
 72
     7
 73
     4
 74
     0
 42
0.0000000001
 43
0.0000000001
 40
-2.0
 40
-2.0
 40
-2.0
 40
-1.0
 40
0.0
 40
0.0
 40
0.0
 10
71.16177468109789
 20
231.3207935588709
 30
0.0
 10
71.41601969750773
 20
231.5414880876973
 30
0.0
 10
71.7185781218179
 20
231.6386917921619
 30
0.0
 10
71.78520288523721
 20
231.5619385796608
 30
0.0
  0
SPLINE
  5
360
330
6C
100
AcDbEntity
  8
Visible (ISO)
100
AcDbSpline
210
0.0
220
0.0
230
1.0
 70
     8
 71
     2
 72
     7
 73
     4
 74
     0
 42
0.0000000001
 43
0.0000000001
 40
-2.0
 40
-2.0
 40
-2.0
 40
-1.0
 40
0.0
 40
0.0
 40
0.0
 10
71.78520288523721
 20
231.5619385796608
 30
0.0
 10
71.85599169637019
 20
231.4803882913783
 30
0.0
 10
71.72041719932
 20
231.1972756379911
 30
0.0
 10
71.48536048603543
 20
230.9932373000195
 30
0.0
  0
SPLINE
  5
361
330
6C
100
AcDbEntity
  8
Visible (ISO)
100
AcDbSpline
210
0.0
220
0.0
230
1.0
 70
     8
 71
     2
 72
     7
 73
     4
 74
     0
 42
0.0000000001
 43
0.0000000001
 40
-2.0
 40
-2.0
 40
-2.0
 40
-1.0
 40
0.0
 40
0.0
 40
0.0
 10
71.48536048603543
 20
230.9932373000195
 30
0.0
 10
71.20713009071899
 20
230.7517225326246
 30
0.0
 10
70.9121447739993
 20
230.6554848253529
 30
0.0
 10
70.84135596286627
 20
230.7370351136353
 30
0.0
  0
SPLINE
  5
362
330
6C
100
AcDbEntity
  8
Visible (ISO)
100
AcDbSpline
210
0.0
220
0.0
230
1.0
 70
     8
 71
     2
 72
     7
 73
     4
 74
     0
 42
0.0000000001
 43
0.0000000001
 40
-2.0
 40
-2.0
 40
-2.0
 40
-1.0
 40
0.0
 40
0.0
 40
0.0
 10
70.84135596286627
 20
230.7370351136353
 30
0.0
 10
70.77056715173329
 20
230.8185854019177
 30
0.0
 10
70.91072771520893
 20
231.1028750618536
 30
0.0
 10
71.16177468109789
 20
231.3207935588709
 30
0.0
  0
SPLINE
  5
363
330
6C
100
AcDbEntity
  8
Visible (ISO)
100
AcDbSpline
210
0.0
220
0.0
230
1.0
 70
     8
 71
     2
 72
     7
 73
     4
 74
     0
 42
0.0000000001
 43
0.0000000001
 40
0.0
 40
0.0
 40
0.0
 40
1.0
 40
2.0
 40
2.0
 40
2.0
 10
72.17515403942852
 20
231.8976274192105
 30
0.0
 10
72.35420809111784
 20
231.6913531606138
 30
0.0
 10
72.10379028599945
 20
231.0786341615173
 30
0.0
 10
71.70243494562919
 20
230.7302421694706
 30
0.0
  0
SPLINE
  5
364
330
6C
100
AcDbEntity
  8
Visible (ISO)
100
AcDbSpline
210
0.0
220
0.0
230
1.0
 70
     8
 71
     2
 72
     8
 73
     5
 74
     0
 42
0.0000000001
 43
0.0000000001
 40
0.0
 40
0.0
 40
0.0
 40
1.0
 40
2.0
 40
3.0
 40
3.0
 40
3.0
 10
71.70243494562919
 20
230.7302421694706
 30
0.0
 10
71.41141234822923
 20
230.4776232748391
 30
0.0
 10
70.95417049236822
 20
230.2517561099614
 30
0.0
 10
70.58528736358114
 20
230.2568009725785
 30
0.0
 10
70.46452997988369
 20
230.3959161702366
 30
0.0
  0
SPLINE
  5
365
330
6C
100
AcDbEntity
  8
Visible (ISO)
100
AcDbSpline
210
0.0
220
0.0
230
1.0
 70
     8
 71
     2
 72
     8
 73
     5
 74
     0
 42
0.0000000001
 43
0.0000000001
 40
0.0
 40
0.0
 40
0.0
 40
1.0
 40
2.0
 40
3.0
 40
3.0
 40
3.0
 10
70.46452997988369
 20
230.3959161702366
 30
0.0
 10
70.34238458028167
 20
230.5366303931553
 30
0.0
 10
70.36185358042549
 20
230.8759760794175
 30
0.0
 10
70.6504795735833
 20
231.3283937629793
 30
0.0
 10
70.94150217098324
 20
231.5810126576108
 30
0.0
  0
SPLINE
  5
366
330
6C
100
AcDbEntity
  8
Visible (ISO)
100
AcDbSpline
210
0.0
220
0.0
230
1.0
 70
     8
 71
     2
 72
     7
 73
     4
 74
     0
 42
0.0000000001
 43
0.0000000001
 40
0.0
 40
0.0
 40
0.0
 40
1.0
 40
2.0
 40
2.0
 40
2.0
 10
70.94150217098324
 20
231.5810126576108
 30
0.0
 10
71.34765458713481
 20
231.9335686973712
 30
0.0
 10
71.99887601954829
 20
232.1007036272863
 30
0.0
 10
72.17515403942852
 20
231.8976274192105
 30
0.0
  0
CIRCLE
  5
367
330
6C
100
AcDbEntity
  8
Visible (ISO)
100
AcDbCircle
 10
49.91101467655337
 20
228.8892182678248
 30
0.0
 40
4.9
  0
ARC
  5
368
330
6C
100
AcDbEntity
  8
Visible (ISO)
100
AcDbCircle
 10
49.91101467655336
 20
228.8892182678167
 30
0.0
 40
5.900000000000002
100
AcDbArc
 50
30.47341956041295
 51
350.8939975516993
  0
CIRCLE
  5
369
330
6C
100
AcDbEntity
  8
Visible (ISO)
100
AcDbCircle
 10
49.91101467655337
 20
228.8892182678228
 30
0.0
 40
1.1
  0
CIRCLE
  5
36A
330
6C
100
AcDbEntity
  8
Visible (ISO)
100
AcDbCircle
 10
49.91101467655337
 20
228.889218267823
 30
0.0
 40
1.3
  0
CIRCLE
  5
36B
330
6C
100
AcDbEntity
  8
Visible (ISO)
100
AcDbCircle
 10
68.71101467655325
 20
228.8892182678228
 30
0.0
 40
1.1
  0
CIRCLE
  5
36C
330
6C
100
AcDbEntity
  8
Visible (ISO)
100
AcDbCircle
 10
68.71101467655325
 20
228.889218267823
 30
0.0
 40
1.3
  0
SPLINE
  5
36D
330
6C
100
AcDbEntity
  8
Visible (ISO)
100
AcDbSpline
210
0.0
220
0.0
230
1.0
 70
    12
 71
     2
 72
     6
 73
     3
 74
     0
 42
0.0000000001
 43
0.0000000001
 40
0.0
 40
0.0
 40
0.0
 40
0.3162926920184196
 40
0.3162926920184196
 40
0.3162926920184196
 10
57.16308642923323
 20
230.2573758954278
 30
0.0
 41
1.0
 10
55.67106540569003
 20
231.0892516428601
 30
0.0
 41
1.02946525839788
 10
54.58466662431512
 20
231.7112932394117
 30
0.0
 41
1.0
  0
ARC
  5
36E
330
6C
100
AcDbEntity
  8
Visible (ISO)
100
AcDbCircle
 10
49.91101467655337
 20
228.8892182678202
 30
0.0
 40
5.459590614148659
100
AcDbArc
 50
350.2427244527301
 51
31.12469265938208
  0
SPLINE
  5
36F
330
6C
100
AcDbEntity
  8
Visible (ISO)
100
AcDbSpline
210
0.0
220
0.0
230
1.0
 70
    12
 71
     2
 72
     6
 73
     3
 74
     0
 42
0.0000000001
 43
0.0000000001
 40
0.0
 40
0.0
 40
0.0
 40
0.3162926920184198
 40
0.3162926920184198
 40
0.3162926920184198
 10
55.29162983780246
 20
227.9639560559925
 30
0.0
 41
1.0
 10
56.07671385572743
 20
228.9390668931855
 30
0.0
 41
1.029465258397912
 10
57.16308642923323
 20
230.2573758954278
 30
0.0
 41
1.0
  0
SPLINE
  5
370
330
6C
100
AcDbEntity
  8
Visible (ISO)
100
AcDbSpline
210
0.0
220
0.0
230
1.0
 70
    12
 71
     2
 72
     6
 73
     3
 74
     0
 42
0.0000000001
 43
0.0000000001
 40
0.0
 40
0.0
 40
0.0
 40
0.3162926920184196
 40
0.3162926920184196
 40
0.3162926920184196
 10
75.35497132680496
 20
232.1020425751192
 30
0.0
 41
1.0
 10
73.69758968919658
 20
232.5158421657173
 30
0.0
 41
1.02946525839788
 10
72.48652743341107
 20
232.8329009498959
 30
0.0
 41
1.0
  0
ARC
  5
371
330
6C
100
AcDbEntity
  8
Visible (ISO)
100
AcDbCircle
 10
68.71101467655323
 20
228.8892182678202
 30
0.0
 40
5.45959061414867
100
AcDbArc
 50
5.366076755340873
 51
46.24804496199252
  0
SPLINE
  5
372
330
6C
100
AcDbEntity
  8
Visible (ISO)
100
AcDbSpline
210
0.0
220
0.0
230
1.0
 70
    12
 71
     2
 72
     6
 73
     3
 74
     0
 42
0.0000000001
 43
0.0000000001
 40
0.0
 40
0.0
 40
0.0
 40
0.3162926920184198
 40
0.3162926920184198
 40
0.3162926920184198
 10
74.14667868413314
 20
229.3997929154486
 30
0.0
 41
1.0
 10
74.65016794056142
 20
230.5459589717746
 30
0.0
 41
1.029465258397912
 10
75.35497132680496
 20
232.1020425751192
 30
0.0
 41
1.0
  0
SPLINE
  5
373
330
6C
100
AcDbEntity
  8
Visible (ISO)
100
AcDbSpline
210
0.0
220
0.0
230
1.0
 70
    12
 71
     2
 72
     6
 73
     3
 74
     0
 42
0.0000000001
 43
0.0000000001
 40
0.0
 40
0.0
 40
0.0
 40
0.4015146493086211
 40
0.4015146493086211
 40
0.4015146493086211
 10
54.67405731931162
 20
231.7481280828074
 30
0.0
 41
1.0
 10
54.8290874972216
 20
231.8120715451077
 30
0.0
 41
1.00068728278567
 10
54.99601536211322
 20
231.8813359172175
 30
0.0
 41
1.0
  0
SPLINE
  5
374
330
6C
100
AcDbEntity
  8
Visible (ISO)
100
AcDbSpline
210
0.0
220
0.0
230
1.0
 70
    12
 71
     2
 72
     6
 73
     3
 74
     0
 42
0.0000000001
 43
0.0000000001
 40
0.0
 40
0.0
 40
0.0
 40
0.1112956231040558
 40
0.1112956231040558
 40
0.1112956231040558
 10
54.58466662431512
 20
231.7112932394117
 30
0.0
 41
1.0
 10
54.62888079729349
 20
231.7294946575515
 30
0.0
 41
1.000058306802485
 10
54.67405731931162
 20
231.7481280828074
 30
0.0
 41
1.0
  0
LINE
  5
375
330
6C
100
AcDbEntity
  8
Visible (ISO)
100
AcDbLine
 10
57.16308642923323
 20
230.2573758954278
 30
0.0
 11
57.57705725180507
 21
230.335474590229
 31
0.0
  0
LINE
  5
376
330
6C
100
AcDbEntity
  8
Visible (ISO)
100
AcDbLine
 10
54.99601536211322
 20
231.8813359172175
 30
0.0
 11
57.57705725180507
 21
230.335474590229
 31
0.0
  0
SPLINE
  5
377
330
6C
100
AcDbEntity
  8
Visible (ISO)
100
AcDbSpline
210
0.0
220
0.0
230
1.0
 70
    12
 71
     2
 72
     6
 73
     3
 74
     0
 42
0.0000000001
 43
0.0000000001
 40
0.0
 40
0.0
 40
0.0
 40
0.4015146493086211
 40
0.4015146493086211
 40
0.4015146493086211
 10
55.736658347124
 20
227.9554753569787
 30
0.0
 41
1.0
 10
55.55596829267225
 20
227.9591590060649
 30
0.0
 41
1.000687282483414
 10
55.38829677319789
 20
227.9622223774591
 30
0.0
 41
1.0
  0
LINE
  5
378
330
6C
100
AcDbEntity
  8
Visible (ISO)
100
AcDbLine
 10
57.57705725180507
 20
230.335474590229
 30
0.0
 11
55.736658347124
 21
227.9554753569787
 31
0.0
  0
SPLINE
  5
379
330
6C
100
AcDbEntity
  8
Visible (ISO)
100
AcDbSpline
210
0.0
220
0.0
230
1.0
 70
    12
 71
     2
 72
     6
 73
     3
 74
     0
 42
0.0000000001
 43
0.0000000001
 40
0.0
 40
0.0
 40
0.0
 40
0.1112956231040557
 40
0.1112956231040557
 40
0.1112956231040557
 10
55.38829677319789
 20
227.9622223774591
 30
0.0
 41
1.0
 10
55.33943650512135
 20
227.963115058267
 30
0.0
 41
1.00005830706888
 10
55.29162983780246
 20
227.9639560559925
 30
0.0
 41
1.0
  0
LINE
  5
37A
330
6C
100
AcDbEntity
  8
Visible (ISO)
100
AcDbLine
 10
72.83926588086004
 20
233.1043744919844
 30
0.0
 11
75.73422904700331
 21
232.2854405842137
 31
0.0
  0
LINE
  5
37B
330
6C
100
AcDbEntity
  8
Visible (ISO)
100
AcDbLine
 10
75.73422904700331
 20
232.2854405842137
 30
0.0
 11
74.57850684056836
 21
229.5077129769462
 31
0.0
  0
SPLINE
  5
37C
330
6C
100
AcDbEntity
  8
Visible (ISO)
100
AcDbSpline
210
0.0
220
0.0
230
1.0
 70
    12
 71
     2
 72
     6
 73
     3
 74
     0
 42
0.0000000001
 43
0.0000000001
 40
0.0
 40
0.0
 40
0.0
 40
0.4015146493086211
 40
0.4015146493086211
 40
0.4015146493086211
 10
72.56321206808883
 20
232.8917819217311
 30
0.0
 41
1.0
 10
72.69619026832895
 20
232.9939578518445
 30
0.0
 41
1.00068728278567
 10
72.83926588086004
 20
233.1043744919844
 30
0.0
 41
1.0
  0
SPLINE
  5
37D
330
6C
100
AcDbEntity
  8
Visible (ISO)
100
AcDbSpline
210
0.0
220
0.0
230
1.0
 70
    12
 71
     2
 72
     6
 73
     3
 74
     0
 42
0.0000000001
 43
0.0000000001
 40
0.0
 40
0.0
 40
0.0
 40
0.1112956231040558
 40
0.1112956231040558
 40
0.1112956231040558
 10
72.48652743341107
 20
232.8329009498959
 30
0.0
 41
1.0
 10
72.52446159594154
 20
232.862007375777
 30
0.0
 41
1.000058306802485
 10
72.56321206808883
 20
232.8917819217311
 30
0.0
 41
1.0
  0
LINE
  5
37E
330
6C
100
AcDbEntity
  8
Visible (ISO)
100
AcDbLine
 10
75.35497132680496
 20
232.1020425751192
 30
0.0
 11
75.73422904700331
 21
232.2854405842137
 31
0.0
  0
SPLINE
  5
37F
330
6C
100
AcDbEntity
  8
Visible (ISO)
100
AcDbSpline
210
0.0
220
0.0
230
1.0
 70
    12
 71
     2
 72
     6
 73
     3
 74
     0
 42
0.0000000001
 43
0.0000000001
 40
0.0
 40
0.0
 40
0.0
 40
0.4015146493086211
 40
0.4015146493086211
 40
0.4015146493086211
 10
74.57850684056836
 20
229.5077129769462
 30
0.0
 41
1.0
 10
74.40311368094239
 20
229.4641273760596
 30
0.0
 41
1.000687282483414
 10
74.24045000644665
 20
229.423339489542
 30
0.0
 41
1.0
  0
SPLINE
  5
380
330
6C
100
AcDbEntity
  8
Visible (ISO)
100
AcDbSpline
210
0.0
220
0.0
230
1.0
 70
    12
 71
     2
 72
     6
 73
     3
 74
     0
 42
0.0000000001
 43
0.0000000001
 40
0.0
 40
0.0
 40
0.0
 40
0.1112956231040557
 40
0.1112956231040557
 40
0.1112956231040557
 10
74.24045000644665
 20
229.423339489542
 30
0.0
 41
1.0
 10
74.19304904791134
 20
229.4114537078908
 30
0.0
 41
1.00005830706888
 10
74.14667868413314
 20
229.3997929154486
 30
0.0
 41
1.0
  0
ARC
  5
381
330
6C
100
AcDbEntity
  8
Visible (ISO)
100
AcDbCircle
 10
68.71101467655325
 20
228.8892182678167
 30
0.0
 40
5.900000000000004
100
AcDbArc
 50
45.59677186302367
 51
6.017349854310253
  0
CIRCLE
  5
382
330
6C
100
AcDbEntity
  8
Visible (ISO)
100
AcDbCircle
 10
68.71101467655325
 20
228.8892182678248
 30
0.0
 40
4.900000000000001
  0
ARC
  5
383
330
6C
100
AcDbEntity
  8
Visible (ISO)
100
AcDbCircle
 10
44.3110146765533
 20
248.689218267788
 30
0.0
 40
2.000000000000003
100
AcDbArc
 50
90.0
 51
180.0
  0
ARC
  5
384
330
6C
100
AcDbEntity
  8
Visible (ISO)
100
AcDbCircle
 10
44.31101467655331
 20
218.689218267788
 30
0.0
 40
2.000000000000003
100
AcDbArc
 50
180.0
 51
270.0
  0
ARC
  5
385
330
6C
100
AcDbEntity
  8
Visible (ISO)
100
AcDbCircle
 10
74.3110146765533
 20
218.689218267788
 30
0.0
 40
2.000000000000003
100
AcDbArc
 50
270.0
 51
0.0
  0
ARC
  5
386
330
6C
100
AcDbEntity
  8
Visible (ISO)
100
AcDbCircle
 10
74.3110146765533
 20
248.689218267788
 30
0.0
 40
2.000000000000003
100
AcDbArc
 50
0.0
 51
90.0
  0
LINE
  5
387
330
6C
100
AcDbEntity
  8
Visible (ISO)
100
AcDbLine
 10
42.3110146765533
 20
218.689218267788
 30
0.0
 11
42.3110146765533
 21
248.689218267788
 31
0.0
  0
LINE
  5
388
330
6C
100
AcDbEntity
  8
Visible (ISO)
100
AcDbLine
 10
74.3110146765533
 20
216.689218267788
 30
0.0
 11
44.3110146765533
 21
216.689218267788
 31
0.0
  0
LINE
  5
389
330
6C
100
AcDbEntity
  8
Visible (ISO)
100
AcDbLine
 10
76.3110146765533
 20
248.689218267788
 30
0.0
 11
76.3110146765533
 21
218.689218267788
 31
0.0
  0
LINE
  5
38A
330
6C
100
AcDbEntity
  8
Visible (ISO)
100
AcDbLine
 10
44.3110146765533
 20
250.689218267788
 30
0.0
 11
74.3110146765533
 21
250.689218267788
 31
0.0
  0
CIRCLE
  5
38B
330
6C
100
AcDbEntity
  8
Visible (ISO)
100
AcDbCircle
 10
72.3110146765533
 20
220.039218267788
 30
0.0
 40
2.0
  0
CIRCLE
  5
38C
330
6C
100
AcDbEntity
  8
Visible (ISO)
100
AcDbCircle
 10
46.31101467655329
 20
220.039218267788
 30
0.0
 40
2.0
  0
LINE
  5
38D
330
6C
100
AcDbEntity
  8
Visible (ISO)
100
AcDbLine
 10
65.31101467655209
 20
253.6892182677665
 30
0.0
 11
79.31101467655368
 21
253.6892182677665
 31
0.0
  0
LINE
  5
38E
330
6C
100
AcDbEntity
  8
Visible (ISO)
100
AcDbLine
 10
79.31101467655368
 20
253.6892182677665
 30
0.0
 11
79.31101467655349
 21
213.6892182677665
 31
0.0
  0
LINE
  5
38F
330
6C
100
AcDbEntity
  8
Visible (ISO)
100
AcDbLine
 10
79.31101467655349
 20
213.6892182677665
 30
0.0
 11
65.31101467655189
 21
213.6892182677665
 31
0.0
  0
LINE
  5
390
330
6C
100
AcDbEntity
  8
Visible (ISO)
100
AcDbLine
 10
56.91101467655279
 20
253.6901148194906
 30
0.0
 11
61.71101467655297
 21
253.6901148194905
 31
0.0
  0
LINE
  5
391
330
6C
100
AcDbEntity
  8
Visible (ISO)
100
AcDbLine
 10
53.31101467655198
 20
213.6892182677665
 30
0.0
 11
39.31101467655293
 21
213.6892182677665
 31
0.0
  0
LINE
  5
392
330
6C
100
AcDbEntity
  8
Visible (ISO)
100
AcDbLine
 10
39.31101467655312
 20
253.6892182677665
 30
0.0
 11
39.31101467655293
 21
213.6892182677665
 31
0.0
  0
LINE
  5
393
330
6C
100
AcDbEntity
  8
Visible (ISO)
100
AcDbLine
 10
39.31101467655312
 20
253.6892182677665
 30
0.0
 11
53.3110146765523
 21
253.6892182677665
 31
0.0
  0
ELLIPSE
  5
394
330
6C
100
AcDbEntity
  8
Visible (ISO)
100
AcDbEllipse
 10
64.31101467655209
 20
253.7116320608683
 30
0.0
 11
1.0
 21
0.0000000000000084
 31
0.0
210
0.0
220
0.0
230
1.0
 40
0.0089655172407267
 41
0.0
 42
1.570796326796449
  0
LINE
  5
395
330
6C
100
AcDbEntity
  8
Visible (ISO)
100
AcDbLine
 10
64.31101467655199
 20
253.7205975781096
 30
0.0
 11
54.31101467655199
 21
253.7205975781097
 31
0.0
  0
ELLIPSE
  5
396
330
6C
100
AcDbEntity
  8
Visible (ISO)
100
AcDbEllipse
 10
54.3110146765521
 20
253.7116320608683
 30
0.0
 11
1.0
 21
0.0000000000000084
 31
0.0
210
0.0
220
0.0
230
1.0
 40
0.0089655172407267
 41
1.570796326796449
 42
3.141592635321917
  0
LINE
  5
397
330
6C
100
AcDbEntity
  8
Visible (ISO)
100
AcDbLine
 10
53.3110146765523
 20
253.6892182677665
 30
0.0
 11
53.31101467655209
 21
253.7116320608689
 31
0.0
  0
LINE
  5
398
330
6C
100
AcDbEntity
  8
Visible (ISO)
100
AcDbLine
 10
65.31101467655209
 20
253.7116320608689
 30
0.0
 11
65.31101467655209
 21
253.6892182677665
 31
0.0
  0
LINE
  5
399
330
6C
100
AcDbEntity
  8
Visible (ISO)
100
AcDbLine
 10
61.71101467655294
 20
213.6883217160423
 30
0.0
 11
56.91101467655254
 21
213.6883217160423
 31
0.0
  0
ELLIPSE
  5
39A
330
6C
100
AcDbEntity
  8
Visible (ISO)
100
AcDbEllipse
 10
64.31101467655176
 20
213.6668044746611
 30
0.0
 11
-1.0
 21
0.0000000000000043
 31
0.0
210
0.0
220
0.0
230
1.0
 40
0.0089655172421408
 41
1.570796326794717
 42
3.14159265467266
  0
LINE
  5
39B
330
6C
100
AcDbEntity
  8
Visible (ISO)
100
AcDbLine
 10
64.31101467655165
 20
213.6578389574186
 30
0.0
 11
54.31101467655166
 21
213.6578389574186
 31
0.0
  0
ELLIPSE
  5
39C
330
6C
100
AcDbEntity
  8
Visible (ISO)
100
AcDbEllipse
 10
54.31101467655174
 20
213.6668044746612
 30
0.0
 11
-1.0
 21
0.0000000000000044
 31
0.0
210
0.0
220
0.0
230
1.0
 40
0.0089655172421408
 41
0.0
 42
1.570796326794709
  0
LINE
  5
39D
330
6C
100
AcDbEntity
  8
Visible (ISO)
100
AcDbLine
 10
53.31101467655198
 20
213.6892182677665
 30
0.0
 11
53.31101467655216
 21
213.6668044746607
 31
0.0
  0
LINE
  5
39E
330
6C
100
AcDbEntity
  8
Visible (ISO)
100
AcDbLine
 10
65.31101467655215
 20
213.6668044746607
 30
0.0
 11
65.31101467655189
 21
213.6892182677665
 31
0.0
  0
LINE
  5
39F
330
6C
100
AcDbEntity
  8
Visible (ISO)
100
AcDbLine
 10
61.71101467655297
 20
253.6901148194905
 30
0.0
 11
61.71101467655319
 21
253.6578389574242
 31
0.0
  0
LINE
  5
3A0
330
6C
100
AcDbEntity
  8
Visible (ISO)
100
AcDbLine
 10
56.91101467655278
 20
253.6578389574242
 30
0.0
 11
56.91101467655279
 21
253.6901148194906
 31
0.0
  0
LINE
  5
3A1
330
6C
100
AcDbEntity
  8
Visible (ISO)
100
AcDbLine
 10
61.71101467655319
 20
253.6578389574242
 30
0.0
 11
56.91101467655278
 21
253.6578389574242
 31
0.0
  0
LINE
  5
3A2
330
6C
100
AcDbEntity
  8
Visible (ISO)
100
AcDbLine
 10
56.91101467655254
 20
213.6883217160423
 30
0.0
 11
56.91101467655276
 21
213.7205975781137
 31
0.0
  0
LINE
  5
3A3
330
6C
100
AcDbEntity
  8
Visible (ISO)
100
AcDbLine
 10
56.91101467655276
 20
213.7205975781137
 30
0.0
 11
61.71101467655294
 21
213.7205975781136
 31
0.0
  0
LINE
  5
3A4
330
6C
100
AcDbEntity
  8
Visible (ISO)
100
AcDbLine
 10
61.71101467655294
 20
213.7205975781136
 30
0.0
 11
61.71101467655294
 21
213.6883217160423
 31
0.0
  0
LINE
  5
3A5
330
6C
100
AcDbEntity
  8
Visible (ISO)
100
AcDbLine
 10
39.31101467655312
 20
253.6892182677665
 30
0.0
 11
39.93435925664278
 21
253.0658736877317
 31
0.0
  0
LINE
  5
3A6
330
6C
100
AcDbEntity
  8
Visible (ISO)
100
AcDbLine
 10
78.68767009647647
 20
253.0658736877312
 30
0.0
 11
79.31101467655368
 21
253.6892182677665
 31
0.0
  0
LINE
  5
3A7
330
6C
100
AcDbEntity
  8
Visible (ISO)
100
AcDbLine
 10
79.31101467655349
 20
213.6892182677665
 30
0.0
 11
78.68767009647649
 21
214.3125628478978
 31
0.0
  0
LINE
  5
3A8
330
6C
100
AcDbEntity
  8
Visible (ISO)
100
AcDbLine
 10
39.93435925664282
 20
214.3125628478978
 30
0.0
 11
39.31101467655293
 21
213.6892182677665
 31
0.0
  0
LINE
  5
3A9
330
6C
100
AcDbEntity
  8
Visible (ISO)
100
AcDbLine
 10
42.89680111419786
 20
250.1034318301787
 30
0.0
 11
39.93435925664279
 21
253.0658736877315
 31
0.0
  0
LINE
  5
3AA
330
6C
100
AcDbEntity
  8
Visible (ISO)
100
AcDbLine
 10
78.68767009647647
 20
253.0658736877311
 30
0.0
 11
75.72522823891555
 21
250.1034318301719
 31
0.0
  0
LINE
  5
3AB
330
6C
100
AcDbEntity
  8
Visible (ISO)
100
AcDbLine
 10
39.93435925664274
 20
214.312562847898
 30
0.0
 11
42.89680111416902
 21
217.2750047054261
 31
0.0
  0
LINE
  5
3AC
330
6C
100
AcDbEntity
  8
Visible (ISO)
100
AcDbLine
 10
75.72522823894392
 20
217.2750047054324
 30
0.0
 11
78.68767009647642
 21
214.3125628478976
 31
0.0
  0
LINE
  5
3AD
330
6C
100
AcDbEntity
  8
Visible (ISO)
100
AcDbLine
 10
49.8110146765533
 20
228.6892182677663
 30
0.0
 11
48.82934929392011
 21
228.6892182677663
 31
0.0
  0
LINE
  5
3AE
330
6C
100
AcDbEntity
  8
Visible (ISO)
100
AcDbLine
 10
49.8110146765533
 20
228.1696030254955
 30
0.0
 11
49.07905680319355
 21
228.1696030254955
 31
0.0
  0
LINE
  5
3AF
330
6C
100
AcDbEntity
  8
Visible (ISO)
100
AcDbLine
 10
49.8110146765533
 20
228.1696030254955
 30
0.0
 11
49.8110146765533
 21
228.6892182677663
 31
0.0
  0
LINE
  5
3B0
330
6C
100
AcDbEntity
  8
Visible (ISO)
100
AcDbLine
 10
49.8110146765533
 20
227.7937731527881
 30
0.0
 11
49.8110146765533
 21
228.1696030254955
 31
0.0
  0
LINE
  5
3B1
330
6C
100
AcDbEntity
  8
Visible (ISO)
100
AcDbLine
 10
49.8110146765533
 20
228.7892181257446
 30
0.0
 11
49.8110146765533
 21
228.6892182677652
 31
0.0
  0
LINE
  5
3B2
330
6C
100
AcDbEntity
  8
Visible (ISO)
100
AcDbLine
 10
68.8110146765533
 20
228.1696030254955
 30
0.0
 11
68.8110146765533
 21
227.7937731527881
 31
0.0
  0
LINE
  5
3B3
330
6C
100
AcDbEntity
  8
Visible (ISO)
100
AcDbLine
 10
68.8110146765533
 20
228.6892182677663
 30
0.0
 11
68.8110146765533
 21
228.1696030254955
 31
0.0
  0
LINE
  5
3B4
330
6C
100
AcDbEntity
  8
Visible (ISO)
100
AcDbLine
 10
68.8110146765533
 20
228.6892182677653
 30
0.0
 11
68.8110146765533
 21
228.7892181257442
 31
0.0
  0
LINE
  5
3B5
330
6C
100
AcDbEntity
  8
Visible (ISO)
100
AcDbLine
 10
69.79268005918649
 20
228.6892182677663
 30
0.0
 11
68.8110146765533
 21
228.6892182677663
 31
0.0
  0
LINE
  5
3B6
330
6C
100
AcDbEntity
  8
Visible (ISO)
100
AcDbLine
 10
69.54297254991306
 20
228.1696030254955
 30
0.0
 11
68.8110146765533
 21
228.1696030254955
 31
0.0
  0
ARC
  5
3B7
330
6C
100
AcDbEntity
  8
Visible (ISO)
100
AcDbCircle
 10
50.09434548792447
 20
227.6892181257446
 30
0.0
 40
0.2833333333334389
100
AcDbArc
 50
118.0724869359121
 51
158.691690673202
  0
LINE
  5
3B8
330
6C
100
AcDbEntity
  8
Visible (ISO)
100
AcDbLine
 10
49.96101215459079
 20
228.7410687092044
 30
0.0
 11
49.96101215459079
 21
227.9392181257446
 31
0.0
  0
ARC
  5
3B9
330
6C
100
AcDbEntity
  8
Visible (ISO)
100
AcDbCircle
 10
68.52767882123193
 20
227.6892181257437
 30
0.0
 40
0.2833333333334462
100
AcDbArc
 50
21.30823110081132
 51
61.92751306420843
  0
LINE
  5
3BA
330
6C
100
AcDbEntity
  8
Visible (ISO)
100
AcDbLine
 10
68.66101215456516
 20
227.9392181257442
 30
0.0
 11
68.66101215456516
 21
228.7410687091921
 31
0.0
  0
LINE
  5
3BB
330
6C
100
AcDbEntity
  8
Visible (ISO)
100
AcDbLine
 10
48.81556957451061
 20
228.7892181257469
 30
0.0
 11
49.84952863530375
 21
228.7892181257469
 31
0.0
  0
ARC
  5
3BC
330
6C
100
AcDbEntity
  8
Visible (ISO)
100
AcDbCircle
 10
49.3110121545907
 20
227.3892181257469
 30
0.0
 40
1.499999999999928
100
AcDbArc
 50
27.05796072185372
 51
68.96053021869843
  0
LINE
  5
3BD
330
6C
100
AcDbEntity
  8
Visible (ISO)
100
AcDbLine
 10
67.61556957451055
 20
228.7892181257465
 30
0.0
 11
69.80645977859594
 21
228.7892181257465
 31
0.0
  0
LINE
  5
3BE
330
6C
100
AcDbEntity
  8
Visible (ISO)
100
AcDbLine
 10
50.81395685620312
 20
229.5174661648987
 30
0.0
 11
48.86718862885175
 21
229.2362444658591
 31
0.0
  0
LINE
  5
3BF
330
6C
100
AcDbEntity
  8
Visible (ISO)
100
AcDbLine
 10
68.71101215459034
 20
228.7639908342327
 30
0.0
 11
68.71101215459034
 21
228.7892181257463
 31
0.0
  0
ARC
  5
3C0
330
6C
100
AcDbEntity
  8
Visible (ISO)
100
AcDbCircle
 10
69.31101215459071
 20
227.3892181257462
 30
0.0
 40
1.499999999999786
100
AcDbArc
 50
113.5781784782185
 51
152.9419058997778
  0
MTEXT
  5
3C1
330
6C
100
AcDbEntity
  8
Symbol (ISO)
100
AcDbMText
 10
55.26648033162627
 20
260.2205976781091
 30
0.0
 40
3.499999940395355
 41
0.0
 71
     7
 72
     1
  1
Top
  7
Label Text (ISO)
 73
     1
 44
1.0
1001
ACAD
1000
MTEXTBEGIN
1070
    73
1070
     1
1070
    44
1040
1.0
1070
    74
1070
     0
1000
MTEXTEND
  0
SPLINE
  5
3C2
330
6C
100
AcDbEntity
  8
Visible (ISO)
100
AcDbSpline
210
0.0
220
0.0
230
1.0
 70
    24
 71
     2
 72
     6
 73
     3
 74
     0
 42
0.0000000001
 43
0.0000000001
 40
1.243974035334366
 40
1.243974035334366
 40
1.243974035334366
 40
1.449066879874373
 40
1.449066879874373
 40
1.449066879874373
 10
144.7949565870544
 20
174.2715572235926
 30
0.0
 10
144.7425749069598
 20
174.2715572235926
 30
0.0
 10
144.6915169221929
 20
174.2715572235926
 30
0.0
  0
LINE
  5
3C3
330
6C
100
AcDbEntity
  8
Visible (ISO)
100
AcDbLine
 10
142.1928602771653
 20
174.0715572235936
 30
0.0
 11
142.1928602771654
 21
174.2715572235937
 31
0.0
  0
LINE
  5
3C4
330
6C
100
AcDbEntity
  8
Visible (ISO)
100
AcDbLine
 10
142.1928602771652
 20
174.2715572235937
 30
0.0
 11
141.8547268985491
 21
174.2715572235938
 31
0.0
  0
LINE
  5
3C5
330
6C
100
AcDbEntity
  8
Visible (ISO)
100
AcDbLine
 10
141.8547268985491
 20
174.0715572235938
 30
0.0
 11
141.8547268985491
 21
174.2715572235938
 31
0.0
  0
LINE
  5
3C6
330
6C
100
AcDbEntity
  8
Visible (ISO)
100
AcDbLine
 10
141.8547268985491
 20
174.2715572235938
 30
0.0
 11
141.4260220792321
 21
174.2715572235939
 31
0.0
  0
LINE
  5
3C7
330
6C
100
AcDbEntity
  8
Visible (ISO)
100
AcDbLine
 10
141.426022079232
 20
174.071557223594
 30
0.0
 11
141.4260220792321
 21
174.2715572235939
 31
0.0
  0
LINE
  5
3C8
330
6C
100
AcDbEntity
  8
Visible (ISO)
100
AcDbLine
 10
143.2002113514933
 20
174.0715572235933
 30
0.0
 11
143.2002113514934
 21
174.2715572235933
 31
0.0
  0
LINE
  5
3C9
330
6C
100
AcDbEntity
  8
Visible (ISO)
100
AcDbLine
 10
143.2002113514934
 20
174.2715572235933
 30
0.0
 11
142.5169047650059
 21
174.2715572235935
 31
0.0
  0
LINE
  5
3CA
330
6C
100
AcDbEntity
  8
Visible (ISO)
100
AcDbLine
 10
142.5169047650059
 20
174.0715572235935
 30
0.0
 11
142.5169047650059
 21
174.2715572235935
 31
0.0
  0
LINE
  5
3CB
330
6C
100
AcDbEntity
  8
Visible (ISO)
100
AcDbLine
 10
142.5169047650059
 20
174.2715572235935
 30
0.0
 11
142.1928602771654
 21
174.2715572235937
 31
0.0
  0
SPLINE
  5
3CC
330
6C
100
AcDbEntity
  8
Visible (ISO)
100
AcDbSpline
210
0.0
220
0.0
230
1.0
 70
    24
 71
     2
 72
     6
 73
     3
 74
     0
 42
0.0000000001
 43
0.0000000001
 40
0.0
 40
0.0
 40
0.0
 40
0.4060791438482795
 40
0.4060791438482795
 40
0.4060791438482795
 10
143.5040122121653
 20
174.2715572235931
 30
0.0
 10
143.4957008697499
 20
174.2715572235931
 30
0.0
 10
143.4957008697499
 20
174.2715572235931
 30
0.0
  0
LINE
  5
3CD
330
6C
100
AcDbEntity
  8
Visible (ISO)
100
AcDbLine
 10
143.5040122121652
 20
174.0715572235931
 30
0.0
 11
143.5040122121653
 21
174.2715572235931
 31
0.0
  0
SPLINE
  5
3CE
330
6C
100
AcDbEntity
  8
Visible (ISO)
100
AcDbSpline
210
0.0
220
0.0
230
1.0
 70
    24
 71
     2
 72
     7
 73
     4
 74
     0
 42
0.0000000001
 43
0.0000000001
 40
0.5630210028317389
 40
0.5630210028317389
 40
0.5630210028317389
 40
1.0
 40
2.0
 40
2.0
 40
2.0
 10
144.6915169221985
 20
174.2715572235926
 30
0.0
 10
144.6915169221986
 20
174.2715572235926
 30
0.0
 10
144.5707545770939
 20
174.2715572235927
 30
0.0
 10
144.3092527304672
 20
174.2715572235928
 30
0.0
  0
SPLINE
  5
3CF
330
6C
100
AcDbEntity
  8
Visible (ISO)
100
AcDbSpline
210
0.0
220
0.0
230
1.0
 70
    24
 71
     2
 72
     7
 73
     4
 74
     0
 42
0.0000000001
 43
0.0000000001
 40
0.0
 40
0.0
 40
0.0
 40
1.0
 40
2.0
 40
2.0
 40
2.0
 10
144.3092527304672
 20
174.2715572235928
 30
0.0
 10
144.1058624053131
 20
174.2715572235929
 30
0.0
 10
143.8046106861671
 20
174.271557223593
 30
0.0
 10
143.6797459197541
 20
174.2715572235931
 30
0.0
  0
LINE
  5
3D0
330
6C
100
AcDbEntity
  8
Visible (ISO)
100
AcDbLine
 10
143.679745919754
 20
174.0715572235929
 30
0.0
 11
143.6797459197541
 21
174.2715572235931
 31
0.0
  0
LINE
  5
3D1
330
6C
100
AcDbEntity
  8
Visible (ISO)
100
AcDbLine
 10
143.679745919754
 20
174.2715572235931
 30
0.0
 11
143.5040122121653
 21
174.2715572235931
 31
0.0
  0
LINE
  5
3D2
330
6C
100
AcDbEntity
  8
Visible (ISO)
100
AcDbLine
 10
141.4260220792301
 20
174.271557223594
 30
0.0
 11
140.33591892071
 21
174.2715572235943
 31
0.0
  0
LINE
  5
3D3
330
6C
100
AcDbEntity
  8
Visible (ISO)
100
AcDbLine
 10
140.33591892071
 20
174.0715572235944
 30
0.0
 11
140.3359189207101
 21
174.2715572235943
 31
0.0
  0
LINE
  5
3D4
330
6C
100
AcDbEntity
  8
Visible (ISO)
100
AcDbLine
 10
140.3359189207101
 20
174.2715572235943
 30
0.0
 11
139.9581521643005
 21
174.2715572235945
 31
0.0
  0
LINE
  5
3D5
330
6C
100
AcDbEntity
  8
Visible (ISO)
100
AcDbLine
 10
139.9581521643005
 20
174.0715572235945
 30
0.0
 11
139.9581521643005
 21
174.2715572235945
 31
0.0
  0
LINE
  5
3D6
330
6C
100
AcDbEntity
  8
Visible (ISO)
100
AcDbLine
 10
143.4405381992896
 20
174.2715572235931
 30
0.0
 11
143.2002113514917
 21
174.2715572235933
 31
0.0
  0
LINE
  5
3D7
330
6C
100
AcDbEntity
  8
Visible (ISO)
100
AcDbLine
 10
143.4405381992896
 20
174.0715572235932
 30
0.0
 11
143.4405381992898
 21
174.2715572235931
 31
0.0
  0
LINE
  5
3D8
330
6C
100
AcDbEntity
  8
Visible (ISO)
100
AcDbLine
 10
143.4957008697482
 20
174.2715572235931
 30
0.0
 11
143.4405381992898
 21
174.2715572235931
 31
0.0
  0
LINE
  5
3D9
330
6C
100
AcDbEntity
  8
Visible (ISO)
100
AcDbLine
 10
147.6852575117215
 20
174.2715572235915
 30
0.0
 11
146.5822323917019
 21
174.2715572235919
 31
0.0
  0
LINE
  5
3DA
330
6C
100
AcDbEntity
  8
Visible (ISO)
100
AcDbLine
 10
147.6852575117215
 20
174.0715572235915
 30
0.0
 11
147.6852575117215
 21
174.2715572235915
 31
0.0
  0
LINE
  5
3DB
330
6C
100
AcDbEntity
  8
Visible (ISO)
100
AcDbLine
 10
147.8101646583602
 20
174.0715572235914
 30
0.0
 11
147.8101646583603
 21
174.2715572235914
 31
0.0
  0
LINE
  5
3DC
330
6C
100
AcDbEntity
  8
Visible (ISO)
100
AcDbLine
 10
147.8101646583603
 20
174.2715572235914
 30
0.0
 11
147.6852575117215
 21
174.2715572235915
 31
0.0
  0
SPLINE
  5
3DD
330
6C
100
AcDbEntity
  8
Visible (ISO)
100
AcDbSpline
210
0.0
220
0.0
230
1.0
 70
    24
 71
     2
 72
     7
 73
     4
 74
     0
 42
0.0000000001
 43
0.0000000001
 40
0.0
 40
0.0
 40
0.0
 40
1.0
 40
2.0
 40
2.0
 40
2.0
 10
146.4383605739505
 20
174.271557223592
 30
0.0
 10
146.2320863153539
 20
174.2715572235921
 30
0.0
 10
145.6193673162573
 20
174.2715572235923
 30
0.0
 10
145.2709753242105
 20
174.2715572235924
 30
0.0
  0
SPLINE
  5
3DE
330
6C
100
AcDbEntity
  8
Visible (ISO)
100
AcDbSpline
210
0.0
220
0.0
230
1.0
 70
    24
 71
     2
 72
     7
 73
     4
 74
     0
 42
0.0000000001
 43
0.0000000001
 40
0.0
 40
0.0
 40
0.0
 40
1.0
 40
1.97815244761488
 40
1.97815244761488
 40
1.97815244761488
 10
145.2709753242105
 20
174.2715572235924
 30
0.0
 10
145.0183564295789
 20
174.2715572235925
 30
0.0
 10
144.7949565870595
 20
174.2715572235926
 30
0.0
 10
144.7949565870594
 20
174.2715572235926
 30
0.0
  0
SPLINE
  5
3DF
330
6C
100
AcDbEntity
  8
Visible (ISO)
100
AcDbSpline
210
0.0
220
0.0
230
1.0
 70
    24
 71
     2
 72
     6
 73
     3
 74
     0
 42
0.0000000001
 43
0.0000000001
 40
1.291537796990997
 40
1.291537796990997
 40
1.291537796990997
 40
2.0
 40
2.0
 40
2.0
 10
146.5822323917025
 20
174.2715572235919
 30
0.0
 10
146.5822323917026
 20
174.2715572235919
 30
0.0
 10
146.4383605739505
 20
174.271557223592
 30
0.0
  0
LINE
  5
3E0
330
6C
100
AcDbEntity
  8
Visible (ISO)
100
AcDbLine
 10
143.4957008697498
 20
174.0715572235931
 30
0.0
 11
143.4957008697499
 21
174.2715572235931
 31
0.0
  0
LINE
  5
3E1
330
6C
100
AcDbEntity
  8
Visible (ISO)
100
AcDbLine
 10
144.6915169221984
 20
174.0715572235926
 30
0.0
 11
144.6915169221985
 21
174.2715572235926
 31
0.0
  0
LINE
  5
3E2
330
6C
100
AcDbEntity
  8
Visible (ISO)
100
AcDbLine
 10
144.7949565870593
 20
174.0715572235926
 30
0.0
 11
144.7949565870594
 21
174.2715572235926
 31
0.0
  0
LINE
  5
3E3
330
6C
100
AcDbEntity
  8
Visible (ISO)
100
AcDbLine
 10
146.5822323917024
 20
174.0715572235919
 30
0.0
 11
146.5822323917025
 21
174.2715572235919
 31
0.0
  0
LINE
  5
3E4
330
6C
100
AcDbEntity
  8
Visible (ISO)
100
AcDbLine
 10
131.2299514225322
 20
162.4715572235979
 30
0.0
 11
133.2299514225328
 21
162.471557223597
 31
0.0
  0
LINE
  5
3E5
330
6C
100
AcDbEntity
  8
Visible (ISO)
100
AcDbLine
 10
163.2299514225328
 20
162.4715572235853
 30
0.0
 11
165.2299514225322
 21
162.4715572235845
 31
0.0
  0
LINE
  5
3E6
330
6C
100
AcDbEntity
  8
Visible (ISO)
100
AcDbLine
 10
165.2299514225322
 20
162.4705572235845
 30
0.0
 11
163.2299514225328
 21
162.4705572235853
 31
0.0
  0
LINE
  5
3E7
330
6C
100
AcDbEntity
  8
Visible (ISO)
100
AcDbLine
 10
133.2299514225328
 20
162.4705572235971
 30
0.0
 11
131.2299514225322
 21
162.4705572235979
 31
0.0
  0
LINE
  5
3E8
330
6C
100
AcDbEntity
  8
Visible (ISO)
100
AcDbLine
 10
165.2299514225322
 20
162.4705572235845
 30
0.0
 11
165.2299514225322
 21
162.4715572235845
 31
0.0
  0
LINE
  5
3E9
330
6C
100
AcDbEntity
  8
Visible (ISO)
100
AcDbLine
 10
131.2299514225322
 20
162.4715572235979
 30
0.0
 11
131.2299514225322
 21
162.4705572235979
 31
0.0
  0
LINE
  5
3EA
330
6C
100
AcDbEntity
  8
Visible (ISO)
100
AcDbLine
 10
163.2299514225327
 20
162.4715572235853
 30
0.0
 11
133.2299514225328
 21
162.471557223597
 31
0.0
  0
LINE
  5
3EB
330
6C
100
AcDbEntity
  8
Visible (ISO)
100
AcDbLine
 10
163.2299514225327
 20
162.4705572235853
 30
0.0
 11
133.2299514225328
 21
162.4705572235971
 31
0.0
  0
LINE
  5
3EC
330
6C
100
AcDbEntity
  8
Visible (ISO)
100
AcDbLine
 10
138.5299514225638
 20
174.0715572235951
 30
0.0
 11
148.3299514225638
 21
174.0715572235913
 31
0.0
  0
LINE
  5
3ED
330
6C
100
AcDbEntity
  8
Visible (ISO)
100
AcDbLine
 10
148.3299514225638
 20
174.0715572235911
 30
0.0
 11
149.3299514225592
 21
162.4715572235908
 31
0.0
  0
LINE
  5
3EE
330
6C
100
AcDbEntity
  8
Visible (ISO)
100
AcDbLine
 10
138.5299514225638
 20
174.0715572235951
 30
0.0
 11
137.5299514225592
 21
162.4715572235954
 31
0.0
  0
SPLINE
  5
3EF
330
6C
100
AcDbEntity
  8
Visible (ISO)
100
AcDbSpline
210
0.0
220
0.0
230
1.0
 70
    12
 71
     2
 72
     6
 73
     3
 74
     0
 42
0.0000000001
 43
0.0000000001
 40
0.0
 40
0.0
 40
0.0
 40
0.3162926920184196
 40
0.3162926920184196
 40
0.3162926920184196
 10
146.6427757298625
 20
166.4715572235919
 30
0.0
 41
1.0
 10
147.0565753204599
 20
167.2290052885159
 30
0.0
 41
1.02946525839788
 10
147.3736341046381
 20
167.5803060994671
 30
0.0
 41
1.0
  0
LINE
  5
3F0
330
6C
100
AcDbEntity
  8
Visible (ISO)
100
AcDbLine
 10
147.3736341046381
 20
167.5803060994672
 30
0.0
 11
143.9405260701913
 21
167.5803060994685
 31
0.0
  0
SPLINE
  5
3F1
330
6C
100
AcDbEntity
  8
Visible (ISO)
100
AcDbSpline
210
0.0
220
0.0
230
1.0
 70
    12
 71
     2
 72
     6
 73
     3
 74
     0
 42
0.0000000001
 43
0.0000000001
 40
0.0
 40
0.0
 40
0.0
 40
0.3162926920184198
 40
0.3162926920184198
 40
0.3162926920184198
 10
143.9405260701913
 20
167.5803060994685
 30
0.0
 41
1.0
 10
145.0866921265174
 20
167.2290052885167
 30
0.0
 41
1.029465258397912
 10
146.6427757298625
 20
166.4715572235919
 30
0.0
 41
1.0
  0
SPLINE
  5
3F2
330
6C
100
AcDbEntity
  8
Visible (ISO)
100
AcDbSpline
210
0.0
220
0.0
230
1.0
 70
    12
 71
     2
 72
     6
 73
     3
 74
     0
 42
0.0000000001
 43
0.0000000001
 40
0.0
 40
0.0
 40
0.0
 40
0.4015146493086211
 40
0.4015146493086211
 40
0.4015146493086211
 10
147.4325150764736
 20
166.4715572235916
 30
0.0
 41
1.0
 10
147.5346910065876
 20
164.5479089708963
 30
0.0
 41
1.00068728278567
 10
147.6451076467281
 20
162.4715572235915
 30
0.0
 41
1.0
  0
SPLINE
  5
3F3
330
6C
100
AcDbEntity
  8
Visible (ISO)
100
AcDbSpline
210
0.0
220
0.0
230
1.0
 70
    12
 71
     2
 72
     6
 73
     3
 74
     0
 42
0.0000000001
 43
0.0000000001
 40
0.0
 40
0.0
 40
0.0
 40
0.1112956231040558
 40
0.1112956231040558
 40
0.1112956231040558
 10
147.3736341046381
 20
167.5803060994671
 30
0.0
 41
1.0
 10
147.4027405305193
 20
167.0321173597807
 30
0.0
 41
1.000058306802485
 10
147.4325150764736
 20
166.4715572235916
 30
0.0
 41
1.0
  0
LINE
  5
3F4
330
6C
100
AcDbEntity
  8
Visible (ISO)
100
AcDbLine
 10
146.6427757298625
 20
166.4715572235919
 30
0.0
 11
146.8261737389583
 21
162.4715572235918
 31
0.0
  0
SPLINE
  5
3F5
330
6C
100
AcDbEntity
  8
Visible (ISO)
100
AcDbSpline
210
0.0
220
0.0
230
1.0
 70
    12
 71
     2
 72
     6
 73
     3
 74
     0
 42
0.0000000001
 43
0.0000000001
 40
0.0
 40
0.0
 40
0.0
 40
0.4015146493086211
 40
0.4015146493086211
 40
0.4015146493086211
 10
144.0484461316905
 20
162.4715572235929
 30
0.0
 41
1.0
 10
144.0048605308031
 20
164.5479089622307
 30
0.0
 41
1.000687282483414
 10
143.964072644285
 20
166.4715572235929
 30
0.0
 41
1.0
  0
SPLINE
  5
3F6
330
6C
100
AcDbEntity
  8
Visible (ISO)
100
AcDbSpline
210
0.0
220
0.0
230
1.0
 70
    12
 71
     2
 72
     6
 73
     3
 74
     0
 42
0.0000000001
 43
0.0000000001
 40
0.0
 40
0.0
 40
0.0
 40
0.1112956231040557
 40
0.1112956231040557
 40
0.1112956231040557
 10
143.964072644285
 20
166.4715572235929
 30
0.0
 41
1.0
 10
143.9521868626336
 20
167.0321173594417
 30
0.0
 41
1.00005830706888
 10
143.9405260701913
 20
167.5803060994685
 30
0.0
 41
1.0
  0
LINE
  5
3F7
330
6C
100
AcDbEntity
  8
Visible (ISO)
100
AcDbLine
 10
168.2299514225336
 20
89.97055722358135
 30
0.0
 11
128.2299514225337
 21
89.9705572235972
 31
0.0
  0
LINE
  5
3F8
330
6C
100
AcDbEntity
  8
Visible (ISO)
100
AcDbLine
 10
168.2523652156321
 20
87.4705572235824
 30
0.0
 11
168.2613307328728
 21
86.47055722358247
 31
0.0
  0
ARC
  5
3F9
330
6C
100
AcDbEntity
  8
Visible (ISO)
100
AcDbCircle
 10
167.7523451209103
 20
87.47055722358274
 30
0.0
 40
1.0
100
AcDbArc
 50
251.8051276583948
 51
269.9999999999674
  0
LINE
  5
3FA
330
6C
100
AcDbEntity
  8
Visible (ISO)
100
AcDbLine
 10
167.7523451209094
 20
86.47055722358272
 30
0.0
 11
168.2613307328733
 21
86.47055722358247
 31
0.0
  0
LINE
  5
3FB
330
6C
100
AcDbEntity
  8
Visible (ISO)
100
AcDbLine
 10
168.2523652156327
 20
87.47055722358226
 30
0.0
 11
168.2299514225295
 21
89.97055722358226
 31
0.0
  0
LINE
  5
3FC
330
6C
100
AcDbEntity
  8
Visible (ISO)
100
AcDbLine
 10
128.1985721121828
 20
86.47055722359906
 30
0.0
 11
128.2075376294249
 21
87.47055722359895
 31
0.0
  0
LINE
  5
3FD
330
6C
100
AcDbEntity
  8
Visible (ISO)
100
AcDbLine
 10
128.1985721121823
 20
86.47055722359906
 30
0.0
 11
128.7075577241462
 21
86.47055722359857
 31
0.0
  0
ARC
  5
3FE
330
6C
100
AcDbEntity
  8
Visible (ISO)
100
AcDbCircle
 10
128.7075577241462
 20
87.47055722359879
 30
0.0
 40
1.00000000000031
100
AcDbArc
 50
269.9999999999838
 51
288.194872338661
  0
LINE
  5
3FF
330
6C
100
AcDbEntity
  8
Visible (ISO)
100
AcDbLine
 10
128.2075376294244
 20
87.47055722359906
 30
0.0
 11
128.2299514225295
 21
89.97055722359906
 31
0.0
  0
LINE
  5
400
330
6C
100
AcDbEntity
  8
Visible (ISO)
100
AcDbLine
 10
167.6066068424776
 20
159.4974526943919
 30
0.0
 11
168.2299514225336
 21
89.97055722358139
 31
0.0
  0
LINE
  5
401
330
6C
100
AcDbEntity
  8
Visible (ISO)
100
AcDbLine
 10
128.2299514225337
 20
89.9705572235972
 30
0.0
 11
128.8532960026442
 21
159.4974526944074
 31
0.0
  0
ARC
  5
402
330
6C
100
AcDbEntity
  8
Visible (ISO)
100
AcDbCircle
 10
164.6067274059575
 20
159.4705572235836
 30
0.0
 40
3.000000000000846
100
AcDbArc
 50
0.5136725362539455
 51
89.99999999997013
  0
ARC
  5
403
330
6C
100
AcDbEntity
  8
Visible (ISO)
100
AcDbCircle
 10
131.8531754391621
 20
159.4705572235963
 30
0.0
 40
2.999999999999968
100
AcDbArc
 50
89.99999999998102
 51
179.4863274636957
  0
LINE
  5
404
330
6C
100
AcDbEntity
  8
Visible (ISO)
100
AcDbLine
 10
128.2799512805119
 20
86.52055722359818
 30
0.0
 11
128.2799512805119
 21
89.97055722359739
 31
0.0
  0
LINE
  5
405
330
6C
100
AcDbEntity
  8
Visible (ISO)
100
AcDbLine
 10
131.2799512805129
 20
86.52055722359822
 30
0.0
 11
128.279951280512
 21
86.52055722359822
 31
0.0
  0
LINE
  5
406
330
6C
100
AcDbEntity
  8
Visible (ISO)
100
AcDbLine
 10
168.1799512805121
 20
86.52055722359822
 30
0.0
 11
168.1799512805121
 21
89.97055722358167
 31
0.0
  0
LINE
  5
407
330
6C
100
AcDbEntity
  8
Visible (ISO)
100
AcDbLine
 10
160.3928197416995
 20
84.22055722359827
 30
0.0
 11
159.729951280512
 21
84.22055722359827
 31
0.0
  0
LINE
  5
408
330
6C
100
AcDbEntity
  8
Visible (ISO)
100
AcDbLine
 10
149.6683021502066
 20
84.22055722359827
 30
0.0
 11
159.729951280512
 21
84.22055722359827
 31
0.0
  0
LINE
  5
409
330
6C
100
AcDbEntity
  8
Visible (ISO)
100
AcDbLine
 10
149.6683021502041
 20
84.22055722359827
 30
0.0
 11
146.7916004108152
 21
84.22055722359827
 31
0.0
  0
LINE
  5
40A
330
6C
100
AcDbEntity
  8
Visible (ISO)
100
AcDbLine
 10
136.729951280512
 20
84.22055722359827
 30
0.0
 11
146.7916004108177
 21
84.22055722359827
 31
0.0
  0
LINE
  5
40B
330
6C
100
AcDbEntity
  8
Visible (ISO)
100
AcDbLine
 10
136.729951280512
 20
84.22055722359827
 30
0.0
 11
136.067082819324
 21
84.22055722359827
 31
0.0
  0
LINE
  5
40C
330
6C
100
AcDbEntity
  8
Visible (ISO)
100
AcDbLine
 10
168.1799512805121
 20
86.52055722359822
 30
0.0
 11
165.1799512805129
 21
86.52055722359822
 31
0.0
  0
LINE
  5
40D
330
6C
100
AcDbEntity
  8
Visible (ISO)
100
AcDbLine
 10
131.2799512805129
 20
86.52055722359822
 30
0.0
 11
165.1799512805129
 21
86.52055722359822
 31
0.0
  0
LINE
  5
40E
330
6C
100
AcDbEntity
  8
Visible (ISO)
100
AcDbLine
 10
147.0099825513775
 20
84.82055722359829
 30
0.0
 11
149.449920009647
 21
84.82055722359829
 31
0.0
  0
LINE
  5
40F
330
6C
100
AcDbEntity
  8
Visible (ISO)
100
AcDbLine
 10
149.449920009647
 20
84.82055722359829
 30
0.0
 11
149.6683021502066
 21
84.22055722359827
 31
0.0
  0
LINE
  5
410
330
6C
100
AcDbEntity
  8
Visible (ISO)
100
AcDbLine
 10
146.7916004108177
 20
84.22055722359827
 30
0.0
 11
147.0099825513775
 21
84.82055722359829
 31
0.0
  0
LINE
  5
411
330
6C
100
AcDbEntity
  8
Visible (ISO)
100
AcDbLine
 10
135.2299512805118
 20
86.52055722359827
 30
0.0
 11
136.067082819324
 21
84.22055722359827
 31
0.0
  0
LINE
  5
412
330
6C
100
AcDbEntity
  8
Visible (ISO)
100
AcDbLine
 10
161.2299512805118
 20
86.52055722359827
 30
0.0
 11
160.3928197416996
 21
84.22055722359827
 31
0.0
  0
LINE
  5
413
330
6C
100
AcDbEntity
  8
Visible (ISO)
100
AcDbLine
 10
138.2299514225323
 20
77.02055722359823
 30
0.0
 11
138.4979006149634
 21
76.02055722359825
 31
0.0
  0
LINE
  5
414
330
6C
100
AcDbEntity
  8
Visible (ISO)
100
AcDbLine
 10
138.4979006149634
 20
76.02055722359825
 30
0.0
 11
142.9620022301011
 21
76.02055722359825
 31
0.0
  0
LINE
  5
415
330
6C
100
AcDbEntity
  8
Visible (ISO)
100
AcDbLine
 10
142.9620022301011
 20
76.02055722359825
 30
0.0
 11
143.2299514225323
 21
77.02055722359823
 31
0.0
  0
LINE
  5
416
330
6C
100
AcDbEntity
  8
Visible (ISO)
100
AcDbLine
 10
143.2299514225323
 20
77.02055722359823
 30
0.0
 11
138.2299514225323
 21
77.02055722359823
 31
0.0
  0
LINE
  5
417
330
6C
100
AcDbEntity
  8
Visible (ISO)
100
AcDbLine
 10
143.2299514225323
 20
84.12613003259833
 30
0.0
 11
143.2299514225323
 21
77.02055722359823
 31
0.0
  0
LINE
  5
418
330
6C
100
AcDbEntity
  8
Visible (ISO)
100
AcDbLine
 10
138.2299514225323
 20
77.02055722359823
 30
0.0
 11
138.2299514225323
 21
84.12613003259833
 31
0.0
  0
ARC
  5
419
330
6C
100
AcDbEntity
  8
Visible (ISO)
100
AcDbCircle
 10
139.0299514225325
 20
85.02055722359839
 30
0.0
 40
1.200000000000205
100
AcDbArc
 50
221.8103148957784
 51
228.189685104221
  0
ARC
  5
41A
330
6C
100
AcDbEntity
  8
Visible (ISO)
100
AcDbCircle
 10
142.4299514225324
 20
85.02055722359813
 30
0.0
 40
1.199999999999857
100
AcDbArc
 50
311.8103148957781
 51
318.1896851042231
  0
LINE
  5
41B
330
6C
100
AcDbEntity
  8
Visible (ISO)
100
AcDbLine
 10
153.2299514225323
 20
77.02055722359826
 30
0.0
 11
153.2299514225323
 21
84.12613003259833
 31
0.0
  0
LINE
  5
41C
330
6C
100
AcDbEntity
  8
Visible (ISO)
100
AcDbLine
 10
158.2299514225323
 20
84.12613003259833
 30
0.0
 11
158.2299514225323
 21
77.02055722359826
 31
0.0
  0
ARC
  5
41D
330
6C
100
AcDbEntity
  8
Visible (ISO)
100
AcDbCircle
 10
157.4299514225324
 20
85.02055722359818
 30
0.0
 40
1.199999999999903
100
AcDbArc
 50
311.8103148957782
 51
318.189685104223
  0
ARC
  5
41E
330
6C
100
AcDbEntity
  8
Visible (ISO)
100
AcDbCircle
 10
154.0299514225327
 20
85.02055722359861
 30
0.0
 40
1.200000000000502
100
AcDbArc
 50
221.8103148957792
 51
228.1896851042202
  0
LINE
  5
41F
330
6C
100
AcDbEntity
  8
Visible (ISO)
100
AcDbLine
 10
153.4979006149634
 20
76.02055722359825
 30
0.0
 11
157.9620022301011
 21
76.02055722359825
 31
0.0
  0
LINE
  5
420
330
6C
100
AcDbEntity
  8
Visible (ISO)
100
AcDbLine
 10
157.9620022301011
 20
76.02055722359825
 30
0.0
 11
158.2299514225323
 21
77.02055722359826
 31
0.0
  0
LINE
  5
421
330
6C
100
AcDbEntity
  8
Visible (ISO)
100
AcDbLine
 10
158.2299514225323
 20
77.02055722359826
 30
0.0
 11
153.2299514225323
 21
77.02055722359826
 31
0.0
  0
LINE
  5
422
330
6C
100
AcDbEntity
  8
Visible (ISO)
100
AcDbLine
 10
153.4979006149634
 20
76.02055722359825
 30
0.0
 11
153.2299514225323
 21
77.02055722359826
 31
0.0
  0
LINE
  5
423
330
6C
100
AcDbEntity
  8
Visible (ISO)
100
AcDbLine
 10
148.7299512805068
 20
84.22055722359827
 30
0.0
 11
148.7299512805068
 21
84.02055722359804
 31
0.0
  0
LINE
  5
424
330
6C
100
AcDbEntity
  8
Visible (ISO)
100
AcDbLine
 10
147.7299512805068
 20
84.22055722359827
 30
0.0
 11
147.7299512805068
 21
84.02055722359817
 31
0.0
  0
LINE
  5
425
330
6C
100
AcDbEntity
  8
Visible (ISO)
100
AcDbLine
 10
148.7299512805055
 20
75.99804634870372
 30
0.0
 11
148.7299512805068
 21
84.02055722359804
 31
0.0
  0
LINE
  5
426
330
6C
100
AcDbEntity
  8
Visible (ISO)
100
AcDbLine
 10
148.7299512805055
 20
75.77207302519972
 30
0.0
 11
148.7299512805055
 21
75.99804634870372
 31
0.0
  0
LINE
  5
427
330
6C
100
AcDbEntity
  8
Visible (ISO)
100
AcDbLine
 10
148.7299512805055
 20
75.77207302519972
 30
0.0
 11
148.7299512805056
 21
73.74363414667499
 31
0.0
  0
LINE
  5
428
330
6C
100
AcDbEntity
  8
Visible (ISO)
100
AcDbLine
 10
148.7299512805056
 20
73.74363414667499
 30
0.0
 11
148.7299512805055
 21
73.62055722359805
 31
0.0
  0
LINE
  5
429
330
6C
100
AcDbEntity
  8
Visible (ISO)
100
AcDbLine
 10
147.7299512805068
 20
84.02055722359817
 30
0.0
 11
148.7299512805068
 21
84.02055722359804
 31
0.0
  0
LINE
  5
42A
330
6C
100
AcDbEntity
  8
Visible (ISO)
100
AcDbLine
 10
147.7299512805068
 20
84.02055722359817
 30
0.0
 11
147.7299512805054
 21
75.99804634870384
 31
0.0
  0
LINE
  5
42B
330
6C
100
AcDbEntity
  8
Visible (ISO)
100
AcDbLine
 10
147.7299512805055
 20
75.99804634870384
 30
0.0
 11
147.7299512805055
 21
75.77207302519981
 31
0.0
  0
LINE
  5
42C
330
6C
100
AcDbEntity
  8
Visible (ISO)
100
AcDbLine
 10
147.7299512805056
 20
73.74363414667509
 30
0.0
 11
147.7299512805055
 21
75.77207302519981
 31
0.0
  0
LINE
  5
42D
330
6C
100
AcDbEntity
  8
Visible (ISO)
100
AcDbLine
 10
147.7299512805055
 20
73.62055722359817
 30
0.0
 11
147.7299512805056
 21
73.74363414667509
 31
0.0
  0
LINE
  5
42E
330
6C
100
AcDbEntity
  8
Visible (ISO)
100
AcDbLine
 10
147.7299512805055
 20
73.62055722359816
 30
0.0
 11
148.7299512805055
 21
73.62055722359805
 31
0.0
  0
LINE
  5
42F
330
6C
100
AcDbEntity
  8
Visible (ISO)
100
AcDbLine
 10
144.8134196305917
 20
84.02055722359826
 30
0.0
 11
144.5472121645841
 21
84.02055722359826
 31
0.0
  0
LINE
  5
430
330
6C
100
AcDbEntity
  8
Visible (ISO)
100
AcDbLine
 10
144.5472121645845
 20
84.02055722359826
 30
0.0
 11
144.3916205862787
 21
84.02055722359826
 31
0.0
  0
SPLINE
  5
431
330
6C
100
AcDbEntity
  8
Visible (ISO)
100
AcDbSpline
210
0.0
220
0.0
230
1.0
 70
    24
 71
     3
 72
    16
 73
    12
 74
     0
 42
0.0000000001
 43
0.0000000001
 40
-0.098960449112324
 40
-0.098960449112324
 40
-0.098960449112324
 40
-0.098960449112324
 40
-0.0750712023319158
 40
-0.0750712023319158
 40
-0.0544517111641421
 40
-0.0544517111641421
 40
-0.0321043179234108
 40
-0.0321043179234108
 40
-0.0192260797526295
 40
-0.0192260797526295
 40
0.0
 40
0.0
 40
0.0
 40
0.0
 10
144.3916205862787
 20
84.02055722359826
 30
0.0
 10
144.3899988302151
 20
84.02055722359826
 30
0.0
 10
144.3869087950494
 20
84.02055722359826
 30
0.0
 10
144.3770828517233
 20
84.02055722359826
 30
0.0
 10
144.3708260983392
 20
84.02055722359826
 30
0.0
 10
144.3530008106152
 20
84.02055722359826
 30
0.0
 10
144.3412741671707
 20
84.02055722359826
 30
0.0
 10
144.3181706615146
 20
84.02055722359826
 30
0.0
 10
144.2995499890543
 20
84.02055722359826
 30
0.0
 10
144.2113393486696
 20
84.02055722359826
 30
0.0
 10
144.1457399213812
 20
84.02055722359826
 30
0.0
 10
144.0816529888725
 20
84.02055722359826
 30
0.0
  0
LINE
  5
432
330
6C
100
AcDbEntity
  8
Visible (ISO)
100
AcDbLine
 10
144.5472121645845
 20
84.22055722359827
 30
0.0
 11
144.5472121645845
 21
84.02055722359826
 31
0.0
  0
LINE
  5
433
330
6C
100
AcDbEntity
  8
Visible (ISO)
100
AcDbLine
 10
144.3916205862787
 20
84.22055722359827
 30
0.0
 11
144.3916205862787
 21
84.02055722359826
 31
0.0
  0
LINE
  5
434
330
6C
100
AcDbEntity
  8
Visible (ISO)
100
AcDbLine
 10
144.8134196305917
 20
84.22055722359827
 30
0.0
 11
144.8134196305917
 21
84.02055722359826
 31
0.0
  0
LINE
  5
435
330
6C
100
AcDbEntity
  8
Visible (ISO)
100
AcDbLine
 10
144.0816529888725
 20
84.22055722359827
 30
0.0
 11
144.0816529888725
 21
84.02055722359826
 31
0.0
  0
LINE
  5
436
330
6C
100
AcDbEntity
  8
Visible (ISO)
100
AcDbLine
 10
145.939027454898
 20
84.02055722359826
 30
0.0
 11
145.6728199888903
 21
84.02055722359826
 31
0.0
  0
LINE
  5
437
330
6C
100
AcDbEntity
  8
Visible (ISO)
100
AcDbLine
 10
145.6728199888908
 20
84.02055722359826
 30
0.0
 11
145.5172284105849
 21
84.02055722359826
 31
0.0
  0
SPLINE
  5
438
330
6C
100
AcDbEntity
  8
Visible (ISO)
100
AcDbSpline
210
0.0
220
0.0
230
1.0
 70
    24
 71
     3
 72
    16
 73
    12
 74
     0
 42
0.0000000001
 43
0.0000000001
 40
-0.0989604491125629
 40
-0.0989604491125629
 40
-0.0989604491125629
 40
-0.0989604491125629
 40
-0.0750712023320723
 40
-0.0750712023320723
 40
-0.0544517111642238
 40
-0.0544517111642238
 40
-0.032104317923419
 40
-0.032104317923419
 40
-0.0192260797526295
 40
-0.0192260797526295
 40
0.0
 40
0.0
 40
0.0
 40
0.0
 10
145.5172284105849
 20
84.02055722359826
 30
0.0
 10
145.5156066545215
 20
84.02055722359826
 30
0.0
 10
145.5125166193556
 20
84.02055722359826
 30
0.0
 10
145.5026906760295
 20
84.02055722359826
 30
0.0
 10
145.4964339226454
 20
84.02055722359826
 30
0.0
 10
145.4786086349214
 20
84.02055722359826
 30
0.0
 10
145.4668819914769
 20
84.02055722359826
 30
0.0
 10
145.443778485821
 20
84.02055722359826
 30
0.0
 10
145.4251578133606
 20
84.02055722359826
 30
0.0
 10
145.336947172976
 20
84.02055722359826
 30
0.0
 10
145.2713477456875
 20
84.02055722359826
 30
0.0
 10
145.2072608131787
 20
84.02055722359826
 30
0.0
  0
LINE
  5
439
330
6C
100
AcDbEntity
  8
Visible (ISO)
100
AcDbLine
 10
145.6728199888908
 20
84.22055722359827
 30
0.0
 11
145.6728199888908
 21
84.02055722359826
 31
0.0
  0
LINE
  5
43A
330
6C
100
AcDbEntity
  8
Visible (ISO)
100
AcDbLine
 10
145.5172284105849
 20
84.22055722359827
 30
0.0
 11
145.5172284105849
 21
84.02055722359826
 31
0.0
  0
LINE
  5
43B
330
6C
100
AcDbEntity
  8
Visible (ISO)
100
AcDbLine
 10
145.939027454898
 20
84.22055722359827
 30
0.0
 11
145.939027454898
 21
84.02055722359826
 31
0.0
  0
LINE
  5
43C
330
6C
100
AcDbEntity
  8
Visible (ISO)
100
AcDbLine
 10
145.2072608131787
 20
84.22055722359827
 30
0.0
 11
145.2072608131787
 21
84.02055722359826
 31
0.0
  0
LINE
  5
43D
330
6C
100
AcDbEntity
  8
Visible (ISO)
100
AcDbLine
 10
151.3134196305917
 20
84.02055722359826
 30
0.0
 11
151.0472121645841
 21
84.02055722359826
 31
0.0
  0
LINE
  5
43E
330
6C
100
AcDbEntity
  8
Visible (ISO)
100
AcDbLine
 10
151.0472121645845
 20
84.02055722359826
 30
0.0
 11
150.8916205862787
 21
84.02055722359826
 31
0.0
  0
SPLINE
  5
43F
330
6C
100
AcDbEntity
  8
Visible (ISO)
100
AcDbSpline
210
0.0
220
0.0
230
1.0
 70
    24
 71
     3
 72
    16
 73
    12
 74
     0
 42
0.0000000001
 43
0.0000000001
 40
-0.0989604491123022
 40
-0.0989604491123022
 40
-0.0989604491123022
 40
-0.0989604491123022
 40
-0.0750712023319049
 40
-0.0750712023319049
 40
-0.0544517111641416
 40
-0.0544517111641416
 40
-0.0321043179234176
 40
-0.0321043179234176
 40
-0.0192260797526327
 40
-0.0192260797526327
 40
0.0
 40
0.0
 40
0.0
 40
0.0
 10
150.8916205862787
 20
84.02055722359826
 30
0.0
 10
150.8899988302152
 20
84.02055722359826
 30
0.0
 10
150.8869087950494
 20
84.02055722359826
 30
0.0
 10
150.8770828517233
 20
84.02055722359826
 30
0.0
 10
150.8708260983391
 20
84.02055722359826
 30
0.0
 10
150.8530008106152
 20
84.02055722359826
 30
0.0
 10
150.8412741671707
 20
84.02055722359826
 30
0.0
 10
150.8181706615147
 20
84.02055722359826
 30
0.0
 10
150.7995499890543
 20
84.02055722359826
 30
0.0
 10
150.7113393486696
 20
84.02055722359826
 30
0.0
 10
150.6457399213813
 20
84.02055722359826
 30
0.0
 10
150.5816529888725
 20
84.02055722359826
 30
0.0
  0
LINE
  5
440
330
6C
100
AcDbEntity
  8
Visible (ISO)
100
AcDbLine
 10
151.0472121645845
 20
84.22055722359827
 30
0.0
 11
151.0472121645845
 21
84.02055722359826
 31
0.0
  0
LINE
  5
441
330
6C
100
AcDbEntity
  8
Visible (ISO)
100
AcDbLine
 10
150.8916205862787
 20
84.22055722359827
 30
0.0
 11
150.8916205862787
 21
84.02055722359826
 31
0.0
  0
LINE
  5
442
330
6C
100
AcDbEntity
  8
Visible (ISO)
100
AcDbLine
 10
151.3134196305917
 20
84.22055722359827
 30
0.0
 11
151.3134196305917
 21
84.02055722359826
 31
0.0
  0
LINE
  5
443
330
6C
100
AcDbEntity
  8
Visible (ISO)
100
AcDbLine
 10
150.5816529888725
 20
84.22055722359827
 30
0.0
 11
150.5816529888725
 21
84.02055722359826
 31
0.0
  0
SPLINE
  5
444
330
6C
100
AcDbEntity
  8
Visible (ISO)
100
AcDbSpline
210
0.0
220
0.0
230
1.0
 70
    24
 71
     3
 72
    10
 73
     6
 74
     0
 42
0.0000000001
 43
0.0000000001
 40
-0.0413488080582308
 40
-0.0413488080582308
 40
-0.0413488080582308
 40
-0.0413488080582308
 40
-0.0267443018693157
 40
-0.0267443018693157
 40
0.0
 40
0.0
 40
0.0
 40
0.0
 10
145.2072608129068
 20
84.02055722359826
 30
0.0
 10
145.1886149449532
 20
84.02055722359826
 30
0.0
 10
145.1691472608594
 20
84.02055722359826
 30
0.0
 10
145.111862091909
 20
84.02055722359826
 30
0.0
 10
145.0508655459423
 20
84.02055722359826
 30
0.0
 10
144.9617178730446
 20
84.02055722359826
 30
0.0
  0
SPLINE
  5
445
330
6C
100
AcDbEntity
  8
Visible (ISO)
100
AcDbSpline
210
0.0
220
0.0
230
1.0
 70
    24
 71
     3
 72
    10
 73
     6
 74
     0
 42
0.0000000001
 43
0.0000000001
 40
-0.0318597001614248
 40
-0.0318597001614248
 40
-0.0318597001614248
 40
-0.0318597001614248
 40
-0.0247169486139358
 40
-0.0247169486139358
 40
-0.0215039096968619
 40
-0.0215039096968619
 40
-0.0215039096968619
 40
-0.0215039096968619
 10
144.9617178730446
 20
84.02055722359826
 30
0.0
 10
144.9264130668377
 20
84.02055722359826
 30
0.0
 10
144.8915639989547
 20
84.02055722359826
 30
0.0
 10
144.8416909737848
 20
84.02055722359826
 30
0.0
 10
144.8270441600557
 20
84.02055722359826
 30
0.0
 10
144.813415577636
 20
84.02055722359826
 30
0.0
  0
LINE
  5
446
330
6C
100
AcDbEntity
  8
Visible (ISO)
100
AcDbLine
 10
152.5143921256399
 20
84.02055722359826
 30
0.0
 11
152.4523986061586
 21
84.02055722359826
 31
0.0
  0
SPLINE
  5
447
330
6C
100
AcDbEntity
  8
Visible (ISO)
100
AcDbSpline
210
0.0
220
0.0
230
1.0
 70
    24
 71
     3
 72
    16
 73
    12
 74
     0
 42
0.0000000001
 43
0.0000000001
 40
-0.0944836609256756
 40
-0.0944836609256756
 40
-0.0944836609256756
 40
-0.0944836609256756
 40
-0.0785439483966986
 40
-0.0785439483966986
 40
-0.0638542006049294
 40
-0.0638542006049294
 40
-0.0399812239660757
 40
-0.0399812239660757
 40
-0.0210233221799159
 40
-0.0210233221799159
 40
0.0
 40
0.0
 40
0.0
 40
0.0
 10
152.4523986061589
 20
84.02055722359826
 30
0.0
 10
152.4523986061589
 20
84.02055722359826
 30
0.0
 10
152.4498531485886
 20
84.02055722359826
 30
0.0
 10
152.4384679227395
 20
84.02055722359826
 30
0.0
 10
152.4301779930303
 20
84.02055722359826
 30
0.0
 10
152.3995663991666
 20
84.02055722359826
 30
0.0
 10
152.3727374371532
 20
84.02055722359826
 30
0.0
 10
152.3107916418558
 20
84.02055722359826
 30
0.0
 10
152.2706132892014
 20
84.02055722359826
 30
0.0
 10
152.1464234510706
 20
84.02055722359826
 30
0.0
 10
152.0751505591295
 20
84.02055722359826
 30
0.0
 10
152.0050728185298
 20
84.02055722359826
 30
0.0
  0
SPLINE
  5
448
330
6C
100
AcDbEntity
  8
Visible (ISO)
100
AcDbSpline
210
0.0
220
0.0
230
1.0
 70
    24
 71
     3
 72
    10
 73
     6
 74
     0
 42
0.0000000001
 43
0.0000000001
 40
-0.0681040403560093
 40
-0.0681040403560093
 40
-0.0681040403560093
 40
-0.0681040403560093
 40
-0.0203580010905117
 40
-0.0203580010905117
 40
0.0
 40
0.0
 40
0.0
 40
0.0
 10
152.0050728185298
 20
84.02055722359826
 30
0.0
 10
151.9339251792564
 20
84.02055722359826
 30
0.0
 10
151.8628815481333
 20
84.02055722359826
 30
0.0
 10
151.7648774074202
 20
84.02055722359826
 30
0.0
 10
151.6818890130955
 20
84.02055722359826
 30
0.0
 10
151.6209561095872
 20
84.02055722359826
 30
0.0
  0
SPLINE
  5
449
330
6C
100
AcDbEntity
  8
Visible (ISO)
100
AcDbSpline
210
0.0
220
0.0
230
1.0
 70
    24
 71
     3
 72
     8
 73
     4
 74
     0
 42
0.0000000001
 43
0.0000000001
 40
-0.0044952685639378
 40
-0.0044952685639378
 40
-0.0044952685639378
 40
-0.0044952685639378
 40
0.0
 40
0.0
 40
0.0
 40
0.0
 10
151.6209565455422
 20
84.02055722359826
 30
0.0
 10
151.6108105777138
 20
84.02055722359826
 30
0.0
 10
151.6002748105198
 20
84.02055722359826
 30
0.0
 10
151.5893515702435
 20
84.02055722359826
 30
0.0
  0
LINE
  5
44A
330
6C
100
AcDbEntity
  8
Visible (ISO)
100
AcDbLine
 10
151.6209561095872
 20
84.22055722359827
 30
0.0
 11
151.6209561095872
 21
84.02055722359826
 31
0.0
  0
LINE
  5
44B
330
6C
100
AcDbEntity
  8
Visible (ISO)
100
AcDbLine
 10
152.4523986061589
 20
84.22055722359827
 30
0.0
 11
152.4523986061589
 21
84.02055722359826
 31
0.0
  0
LINE
  5
44C
330
6C
100
AcDbEntity
  8
Visible (ISO)
100
AcDbLine
 10
152.5143921256399
 20
84.22055722359827
 30
0.0
 11
152.5143921256399
 21
84.02055722359826
 31
0.0
  0
LINE
  5
44D
330
6C
100
AcDbEntity
  8
Visible (ISO)
100
AcDbLine
 10
151.5893515702435
 20
84.22055722359827
 30
0.0
 11
151.5893515702435
 21
84.02055722359826
 31
0.0
  0
SPLINE
  5
44E
330
6C
100
AcDbEntity
  8
Visible (ISO)
100
AcDbSpline
210
0.0
220
0.0
230
1.0
 70
    24
 71
     3
 72
     8
 73
     4
 74
     0
 42
0.0000000001
 43
0.0000000001
 40
-0.0083977984212931
 40
-0.0083977984212931
 40
-0.0083977984212931
 40
-0.0083977984212931
 40
0.0
 40
0.0
 40
0.0
 40
0.0
 10
151.5638247313104
 20
84.02055722359826
 30
0.0
 10
151.5360241676399
 20
84.02055722359826
 30
0.0
 10
151.5079439225301
 20
84.02055722359826
 30
0.0
 10
151.4799512611258
 20
84.02055722359826
 30
0.0
  0
SPLINE
  5
44F
330
6C
100
AcDbEntity
  8
Visible (ISO)
100
AcDbSpline
210
0.0
220
0.0
230
1.0
 70
    24
 71
     3
 72
    10
 73
     6
 74
     0
 42
0.0000000001
 43
0.0000000001
 40
-0.0542675059303971
 40
-0.0542675059303971
 40
-0.0542675059303971
 40
-0.0542675059303971
 40
-0.0474603926765869
 40
-0.0474603926765869
 40
-0.0442109560878238
 40
-0.0442109560878238
 40
-0.0442109560878238
 40
-0.0442109560878238
 10
151.4799512611258
 20
84.02055722359826
 30
0.0
 10
151.4417977633646
 20
84.02055722359826
 30
0.0
 10
151.4036293288782
 20
84.02055722359826
 30
0.0
 10
151.3483144904399
 20
84.02055722359826
 30
0.0
 10
151.330706859225
 20
84.02055722359826
 30
0.0
 10
151.3134196332089
 20
84.02055722359826
 30
0.0
  0
SPLINE
  5
450
330
6C
100
AcDbEntity
  8
Visible (ISO)
100
AcDbSpline
210
0.0
220
0.0
230
1.0
 70
    24
 71
     3
 72
     8
 73
     4
 74
     0
 42
0.0000000001
 43
0.0000000001
 40
-0.0822068661560225
 40
-0.0822068661560225
 40
-0.0822068661560225
 40
-0.0822068661560225
 40
-0.0691905156001116
 40
-0.0691905156001116
 40
-0.0691905156001116
 40
-0.0691905156001116
 10
152.5229010400772
 20
84.02055722359826
 30
0.0
 10
152.5229010400772
 20
84.02055722359826
 30
0.0
 10
152.5205192168533
 20
84.02055722359826
 30
0.0
 10
152.5143904528853
 20
84.02055722359826
 30
0.0
  0
SPLINE
  5
451
330
6C
100
AcDbEntity
  8
Visible (ISO)
100
AcDbSpline
210
0.0
220
0.0
230
1.0
 70
    24
 71
     3
 72
     8
 73
     4
 74
     0
 42
0.0000000001
 43
0.0000000001
 40
-0.0337742282634702
 40
-0.0337742282634702
 40
-0.0337742282634702
 40
-0.0337742282634702
 40
0.0
 40
0.0
 40
0.0
 40
0.0
 10
151.5893368071168
 20
84.02055722359826
 30
0.0
 10
151.5705354137694
 20
84.02055722359826
 30
0.0
 10
151.5638248269264
 20
84.02055722359826
 30
0.0
 10
151.5638248269264
 20
84.02055722359826
 30
0.0
  0
LINE
  5
452
330
6C
100
AcDbEntity
  8
Visible (ISO)
100
AcDbLine
 10
152.5229010400772
 20
84.22055722359827
 30
0.0
 11
152.5229010400772
 21
84.02055722359826
 31
0.0
  0
LINE
  5
453
330
6C
100
AcDbEntity
  8
Visible (ISO)
100
AcDbLine
 10
151.5638248269264
 20
84.22055722359827
 30
0.0
 11
151.5638248269264
 21
84.02055722359826
 31
0.0
  0
MTEXT
  5
454
330
6C
100
AcDbEntity
  8
Symbol (ISO)
100
AcDbMText
 10
143.9221177958165
 20
180.7715573235944
 30
0.0
 40
3.499999940395355
 41
0.0
 71
     7
 72
     1
  1
Side
  7
Label Text (ISO)
 73
     1
 44
1.0
1001
ACAD
1000
MTEXTBEGIN
1070
    73
1070
     1
1070
    44
1040
1.0
1070
    74
1070
     0
1000
MTEXTEND
  0
ENDSEC
  0
SECTION
  2
OBJECTS
  0
DICTIONARY
  5
C
330
0
100
AcDbDictionary
281
     1
  3
ACAD_COLOR
350
63
  3
ACAD_GROUP
350
D
  3
ACAD_LAYOUT
350
62
  3
ACAD_MATERIAL
350
10
  3
ACAD_MLEADERSTYLE
350
66
  3
ACAD_MLINESTYLE
350
5F
  3
ACAD_PLOTSETTINGS
350
61
  3
ACAD_PLOTSTYLENAME
350
E
  3
ACAD_SCALELIST
350
42
  3
ACAD_TABLESTYLE
350
64
  3
ACAD_VISUALSTYLE
350
29
  3
ACDB_RECOMPOSE_DATA
350
512
  3
AcDbVariableDictionary
350
455
  3
DWGPROPS
350
513
  0
DICTIONARY
  5
54F
330
1D3
100
AcDbDictionary
280
     1
281
     1
  3
ACAD_MTEXT_RT
360
550
  0
DICTIONARY
  5
551
330
1D4
100
AcDbDictionary
280
     1
281
     1
  3
ACAD_MTEXT_RT
360
552
  0
DICTIONARY
  5
553
330
1D5
100
AcDbDictionary
280
     1
281
     1
  3
ACAD_MTEXT_RT
360
554
  0
DICTIONARY
  5
45B
330
1D7
100
AcDbDictionary
280
     1
281
     1
  3
ACAD_MLATT
360
4EB
  3
ACAD_XREC_ROUNDTRIP
360
4EA
  0
DICTIONARY
  5
45E
330
1D9
100
AcDbDictionary
280
     1
281
     1
  3
ACAD_MLATT
360
4ED
  3
ACAD_XREC_ROUNDTRIP
360
4EC
  0
DICTIONARY
  5
461
330
1DA
100
AcDbDictionary
280
     1
281
     1
  3
ACAD_MLATT
360
4EF
  3
ACAD_XREC_ROUNDTRIP
360
4EE
  0
DICTIONARY
  5
464
330
1DB
100
AcDbDictionary
280
     1
281
     1
  3
ACAD_MLATT
360
4F1
  3
ACAD_XREC_ROUNDTRIP
360
4F0
  0
DICTIONARY
  5
467
330
1DC
100
AcDbDictionary
280
     1
281
     1
  3
ACAD_MLATT
360
4F3
  3
ACAD_XREC_ROUNDTRIP
360
4F2
  0
DICTIONARY
  5
46A
330
1DD
100
AcDbDictionary
280
     1
281
     1
  3
ACAD_MLATT
360
4F5
  3
ACAD_XREC_ROUNDTRIP
360
4F4
  0
DICTIONARY
  5
46D
330
1DE
100
AcDbDictionary
280
     1
281
     1
  3
ACAD_MLATT
360
4F7
  3
ACAD_XREC_ROUNDTRIP
360
4F6
  0
DICTIONARY
  5
470
330
1DF
100
AcDbDictionary
280
     1
281
     1
  3
ACAD_MLATT
360
4F9
  3
ACAD_XREC_ROUNDTRIP
360
4F8
  0
DICTIONARY
  5
473
330
1E0
100
AcDbDictionary
280
     1
281
     1
  3
ACAD_MLATT
360
4FB
  3
ACAD_XREC_ROUNDTRIP
360
4FA
  0
DICTIONARY
  5
476
330
1E1
100
AcDbDictionary
280
     1
281
     1
  3
ACAD_MLATT
360
4FD
  3
ACAD_XREC_ROUNDTRIP
360
4FC
  0
DICTIONARY
  5
479
330
1E2
100
AcDbDictionary
280
     1
281
     1
  3
ACAD_MLATT
360
4FF
  3
ACAD_XREC_ROUNDTRIP
360
4FE
  0
DICTIONARY
  5
47C
330
1E3
100
AcDbDictionary
280
     1
281
     1
  3
ACAD_MLATT
360
501
  3
ACAD_XREC_ROUNDTRIP
360
500
  0
DICTIONARY
  5
47F
330
1E4
100
AcDbDictionary
280
     1
281
     1
  3
ACAD_MLATT
360
503
  3
ACAD_XREC_ROUNDTRIP
360
502
  0
DICTIONARY
  5
482
330
1E5
100
AcDbDictionary
280
     1
281
     1
  3
ACAD_MLATT
360
505
  3
ACAD_XREC_ROUNDTRIP
360
504
  0
DICTIONARY
  5
485
330
1E7
100
AcDbDictionary
280
     1
281
     1
  3
ACAD_MLATT
360
507
  3
ACAD_XREC_ROUNDTRIP
360
506
  0
DICTIONARY
  5
488
330
1E8
100
AcDbDictionary
280
     1
281
     1
  3
ACAD_MLATT
360
509
  3
ACAD_XREC_ROUNDTRIP
360
508
  0
DICTIONARY
  5
48B
330
1E9
100
AcDbDictionary
280
     1
281
     1
  3
ACAD_MLATT
360
50B
  3
ACAD_XREC_ROUNDTRIP
360
50A
  0
DICTIONARY
  5
48E
330
1EA
100
AcDbDictionary
280
     1
281
     1
  3
ACAD_MLATT
360
50D
  3
ACAD_XREC_ROUNDTRIP
360
50C
  0
DICTIONARY
  5
491
330
1EC
100
AcDbDictionary
280
     1
281
     1
  3
ACAD_MLATT
360
50F
  3
ACAD_XREC_ROUNDTRIP
360
50E
  0
DICTIONARY
  5
494
330
1ED
100
AcDbDictionary
280
     1
281
     1
  3
ACAD_MLATT
360
511
  3
ACAD_XREC_ROUNDTRIP
360
510
  0
DICTIONARY
  5
63
102
{ACAD_REACTORS
330
C
102
}
330
C
100
AcDbDictionary
281
     1
  0
DICTIONARY
  5
D
102
{ACAD_REACTORS
330
C
102
}
330
C
100
AcDbDictionary
281
     1
  0
DICTIONARY
  5
62
102
{ACAD_REACTORS
330
C
102
}
330
C
100
AcDbDictionary
281
     1
  3
Layout1
350
6B
  3
Layout2
350
73
  3
Model
350
6F
  0
DICTIONARY
  5
10
102
{ACAD_REACTORS
330
C
102
}
330
C
100
AcDbDictionary
281
     1
  3
ByBlock
350
19
  3
ByLayer
350
11
  3
Global
350
21
  0
DICTIONARY
  5
66
102
{ACAD_REACTORS
330
C
102
}
330
C
100
AcDbDictionary
281
     1
  3
Standard
350
67
  0
DICTIONARY
  5
5F
102
{ACAD_REACTORS
330
C
102
}
330
C
100
AcDbDictionary
281
     1
  3
Standard
350
60
  0
DICTIONARY
  5
61
102
{ACAD_REACTORS
330
C
102
}
330
C
100
AcDbDictionary
281
     1
  0
ACDBDICTIONARYWDFLT
  5
E
102
{ACAD_REACTORS
330
C
102
}
330
C
100
AcDbDictionary
281
     1
  3
Normal
350
F
100
AcDbDictionaryWithDefault
340
F
  0
DICTIONARY
  5
42
102
{ACAD_REACTORS
330
C
102
}
330
C
100
AcDbDictionary
281
     1
  3
A0
350
43
  3
A1
350
44
  3
A2
350
45
  3
A3
350
46
  3
A4
350
47
  3
A5
350
48
  3
A6
350
49
  3
A7
350
4A
  3
A8
350
4B
  3
A9
350
4C
  3
B0
350
4D
  3
B1
350
4E
  3
B2
350
4F
  3
B3
350
50
  3
B4
350
51
  3
B5
350
52
  3
B6
350
53
  0
DICTIONARY
  5
64
102
{ACAD_REACTORS
330
C
102
}
330
C
100
AcDbDictionary
281
     1
  3
Standard
350
65
  0
DICTIONARY
  5
29
102
{ACAD_REACTORS
330
C
102
}
330
C
100
AcDbDictionary
281
     1
  3
2dWireframe
350
2F
  3
Basic
350
2E
  3
Brighten
350
35
  3
ColorChange
350
39
  3
Conceptual
350
32
  3
Dim
350
34
  3
EdgeColorOff
350
41
  3
Facepattern
350
38
  3
Flat
350
2A
  3
FlatWithEdges
350
2B
  3
Gouraud
350
2C
  3
GouraudWithEdges
350
2D
  3
Hidden
350
31
  3
JitterOff
350
3F
  3
Linepattern
350
37
  3
OverhangOff
350
40
  3
Realistic
350
33
  3
Shaded
350
3E
  3
Shaded with edges
350
3D
  3
Shades of Gray
350
3A
  3
Sketchy
350
3B
  3
Thicken
350
36
  3
Wireframe
350
30
  3
X-Ray
350
3C
  0
XRECORD
  5
512
102
{ACAD_REACTORS
330
C
102
}
330
C
100
AcDbXrecord
280
     1
 90
        1
330
65
330
1D7
330
1D9
330
1DA
330
1DB
330
1DC
330
1DD
330
1DE
330
1DF
330
1E0
330
1E1
330
1E2
330
1E3
330
1E4
330
1E5
330
1E7
330
1E8
330
1E9
330
1EA
330
1EC
330
1ED
  0
DICTIONARY
  5
455
102
{ACAD_REACTORS
330
C
102
}
330
C
100
AcDbDictionary
281
     1
  3
CANNOSCALE
350
458
  3
CMLEADERSTYLE
350
457
  3
CTABLESTYLE
350
456
  3
DIMASSOC
350
4E4
  3
HIDETEXT
350
4E3
  3
INDEXCTL
350
4E2
  3
LAYEREVAL
350
4DF
  3
LAYERNOTIFY
350
4E0
  3
LIGHTINGUNITS
350
4DE
  3
LOFTANG1
350
4E5
  3
LOFTANG2
350
4E6
  3
LONGITUDE
350
4E7
  3
MSLTSCALE
350
4DD
  3
SORTENTS
350
4E1
  3
XCLIPFRAME
350
4E8
  0
XRECORD
  5
513
102
{ACAD_REACTORS
330
C
102
}
330
C
100
AcDbXrecord
280
     1
  1
DWGPROPS COOKIE
  2

  3

  4
oey
  6

  7

  8
oey
  9

300
Manager=BK
301
Company=
302
Category=
303
Part Number=TDBE variable
304
Description=
305
Project=
306
Designer=oey
307
Engineer=
308
Authority=
309
Cost Center=
 40
0.0003226388888889
 41
2455629.542110393
 42
2455629.54248529
  1

 90
       16
300
Vendor=
300
User Status=
300
Design Status=WorkInProgress
300
Checked by=
300
Engr Approved by=
300
Mfg Approved by=
  0
XRECORD
  5
550
102
{ACAD_REACTORS
330
54F
102
}
330
54F
100
AcDbXrecord
280
     1
 40
36391.0
  1
\fISOCPEUR|b0|i0;\H2.0000;±
  0
XRECORD
  5
552
102
{ACAD_REACTORS
330
551
102
}
330
551
100
AcDbXrecord
280
     1
 40
36391.0
  1
\fISOCPEUR|b0|i0;\H2.0000;±
  0
XRECORD
  5
554
102
{ACAD_REACTORS
330
553
102
}
330
553
100
AcDbXrecord
280
     1
 40
36391.0
  1
\fISOCPEUR|b0|i0;\H2.0000;±
  0
XRECORD
  5
4EB
102
{ACAD_REACTORS
330
45B
102
}
330
45B
100
AcDbXrecord
280
     1
 70
     4
 70
     0
 70
     0
 40
1.0
  2
Sheet_Size
  1
Embedded Object
 10
282.5747844708676
 20
77.25318968847012
 30
0.0
 40
3.000000119209288
 41
0.0
 46
0.0
 71
     7
 72
     5
  1
A4
  7
Text Style72
 73
     1
 44
1.0
  0
XRECORD
  5
4EA
102
{ACAD_REACTORS
330
45B
102
}
330
45B
100
AcDbXrecord
280
     1
102
ACAD_MATT_HEIGHT
140
3.000000119209288
  0
XRECORD
  5
4ED
102
{ACAD_REACTORS
330
45E
102
}
330
45E
100
AcDbXrecord
280
     1
 70
     4
 70
     0
 70
     0
 40
1.0
  2
<SCHAAL>
  1
Embedded Object
 10
219.0747844708677
 20
88.15318968847007
 30
0.0
 40
2.000000029802321
 41
0.0
 46
0.0
 71
     7
 72
     5
  1

  7
Text Style61
 73
     1
 44
1.0
  0
XRECORD
  5
4EC
102
{ACAD_REACTORS
330
45E
102
}
330
45E
100
AcDbXrecord
280
     1
102
ACAD_MATT_HEIGHT
140
2.000000029802321
  0
XRECORD
  5
4EF
102
{ACAD_REACTORS
330
461
102
}
330
461
100
AcDbXrecord
280
     1
 70
     4
 70
     0
 70
     0
 40
1.0
  2
Number_of_sheets
  1
Embedded Object
 10
211.5747844708677
 20
88.15318968847009
 30
0.0
 40
2.000000029802321
 41
0.0
 46
0.0
 71
     7
 72
     5
  1
1 
  7
Text Style61
 73
     1
 44
1.0
  0
XRECORD
  5
4EE
102
{ACAD_REACTORS
330
461
102
}
330
461
100
AcDbXrecord
280
     1
102
ACAD_MATT_HEIGHT
140
2.000000029802321
  0
XRECORD
  5
4F1
102
{ACAD_REACTORS
330
464
102
}
330
464
100
AcDbXrecord
280
     1
 70
     4
 70
     0
 70
     0
 40
1.0
  2
Sheet_number
  1
Embedded Object
 10
199.5747844708677
 20
88.15318968847009
 30
0.0
 40
2.000000029802321
 41
0.0
 46
0.0
 71
     7
 72
     5
  1
1 
  7
Text Style61
 73
     1
 44
1.0
  0
XRECORD
  5
4F0
102
{ACAD_REACTORS
330
464
102
}
330
464
100
AcDbXrecord
280
     1
102
ACAD_MATT_HEIGHT
140
2.000000029802321
  0
XRECORD
  5
4F3
102
{ACAD_REACTORS
330
467
102
}
330
467
100
AcDbXrecord
280
     1
 70
     4
 70
     0
 70
     0
 40
1.0
  2
<Tol_lineair>
  1
Embedded Object
 10
111.9747844708677
 20
88.15318968847007
 30
0.0
 40
2.000000029802321
 41
5.514138473137233
 46
0.0
 71
     7
 72
     5
  1

  7
Text Style61
 73
     1
 44
1.0
  0
XRECORD
  5
4F2
102
{ACAD_REACTORS
330
467
102
}
330
467
100
AcDbXrecord
280
     1
102
ACAD_MATT_HEIGHT
140
2.000000029802321
  0
XRECORD
  5
4F5
102
{ACAD_REACTORS
330
46A
102
}
330
46A
100
AcDbXrecord
280
     1
 70
     4
 70
     0
 70
     0
 40
1.0
  2
<Tol_Hoek>
  1
Embedded Object
 10
122.9747844708677
 20
88.15318968847003
 30
0.0
 40
2.000000029802321
 41
5.685907227014687
 46
0.0
 71
     7
 72
     5
  1

  7
Text Style61
 73
     1
 44
1.0
  0
XRECORD
  5
4F4
102
{ACAD_REACTORS
330
46A
102
}
330
46A
100
AcDbXrecord
280
     1
102
ACAD_MATT_HEIGHT
140
2.000000029802321
  0
XRECORD
  5
4F7
102
{ACAD_REACTORS
330
46D
102
}
330
46D
100
AcDbXrecord
280
     1
 70
     4
 70
     0
 70
     0
 40
1.0
  2
<Tol_Gaten>
  1
Embedded Object
 10
132.2747844708676
 20
88.15318968847003
 30
0.0
 40
2.000000029802321
 41
0.0
 46
0.0
 71
     7
 72
     5
  1

  7
Text Style61
 73
     1
 44
1.0
  0
XRECORD
  5
4F6
102
{ACAD_REACTORS
330
46D
102
}
330
46D
100
AcDbXrecord
280
     1
102
ACAD_MATT_HEIGHT
140
2.000000029802321
  0
XRECORD
  5
4F9
102
{ACAD_REACTORS
330
470
102
}
330
470
100
AcDbXrecord
280
     1
 70
     4
 70
     0
 70
     0
 40
1.0
  2
<Revisie1_datum>
  1
Embedded Object
 10
259.0747844708675
 20
101.0594580385991
 30
0.0
 40
1.500000059604644
 41
0.0
 46
0.0
 71
     4
 72
     5
  1

  7
Text Style44
 73
     1
 44
1.0
  0
XRECORD
  5
4F8
102
{ACAD_REACTORS
330
470
102
}
330
470
100
AcDbXrecord
280
     1
102
ACAD_MATT_HEIGHT
140
1.500000059604644
  0
XRECORD
  5
4FB
102
{ACAD_REACTORS
330
473
102
}
330
473
100
AcDbXrecord
280
     1
 70
     4
 70
     0
 70
     0
 40
1.0
  2
<Revisie2_datum>
  1
Embedded Object
 10
259.0747844708675
 20
105.1636369386852
 30
0.0
 40
1.500000059604644
 41
0.0
 46
0.0
 71
     4
 72
     5
  1

  7
Text Style44
 73
     1
 44
1.0
  0
XRECORD
  5
4FA
102
{ACAD_REACTORS
330
473
102
}
330
473
100
AcDbXrecord
280
     1
102
ACAD_MATT_HEIGHT
140
1.500000059604644
  0
XRECORD
  5
4FD
102
{ACAD_REACTORS
330
476
102
}
330
476
100
AcDbXrecord
280
     1
 70
     4
 70
     0
 70
     0
 40
1.0
  2
<Revisie3_datum>
  1
Embedded Object
 10
259.0747844708675
 20
109.2678158387712
 30
0.0
 40
1.500000059604644
 41
0.0
 46
0.0
 71
     4
 72
     5
  1

  7
Text Style44
 73
     1
 44
1.0
  0
XRECORD
  5
4FC
102
{ACAD_REACTORS
330
476
102
}
330
476
100
AcDbXrecord
280
     1
102
ACAD_MATT_HEIGHT
140
1.500000059604644
  0
XRECORD
  5
4FF
102
{ACAD_REACTORS
330
479
102
}
330
479
100
AcDbXrecord
280
     1
 70
     4
 70
     0
 70
     0
 40
1.0
  2
<Revisie1_Naam>
  1
Embedded Object
 10
280.0747844708676
 20
101.0594580385991
 30
0.0
 40
1.500000059604644
 41
0.0
 46
0.0
 71
     4
 72
     5
  1

  7
Text Style44
 73
     1
 44
1.0
  0
XRECORD
  5
4FE
102
{ACAD_REACTORS
330
479
102
}
330
479
100
AcDbXrecord
280
     1
102
ACAD_MATT_HEIGHT
140
1.500000059604644
  0
XRECORD
  5
501
102
{ACAD_REACTORS
330
47C
102
}
330
47C
100
AcDbXrecord
280
     1
 70
     4
 70
     0
 70
     0
 40
1.0
  2
<Revisie2_Naam>
  1
Embedded Object
 10
280.0747844708676
 20
105.1636369386852
 30
0.0
 40
1.500000059604644
 41
0.0
 46
0.0
 71
     4
 72
     5
  1

  7
Text Style44
 73
     1
 44
1.0
  0
XRECORD
  5
500
102
{ACAD_REACTORS
330
47C
102
}
330
47C
100
AcDbXrecord
280
     1
102
ACAD_MATT_HEIGHT
140
1.500000059604644
  0
XRECORD
  5
503
102
{ACAD_REACTORS
330
47F
102
}
330
47F
100
AcDbXrecord
280
     1
 70
     4
 70
     0
 70
     0
 40
1.0
  2
<Revisie3_Naam>
  1
Embedded Object
 10
280.0747844708675
 20
109.2678158387712
 30
0.0
 40
1.500000059604644
 41
0.0
 46
0.0
 71
     4
 72
     5
  1

  7
Text Style44
 73
     1
 44
1.0
  0
XRECORD
  5
502
102
{ACAD_REACTORS
330
47F
102
}
330
47F
100
AcDbXrecord
280
     1
102
ACAD_MATT_HEIGHT
140
1.500000059604644
  0
XRECORD
  5
505
102
{ACAD_REACTORS
330
482
102
}
330
482
100
AcDbXrecord
280
     1
 70
     4
 70
     0
 70
     0
 40
1.0
  2
<Datum>
  1
Embedded Object
 10
268.3747844708677
 20
88.15318968847012
 30
0.0
 40
2.000000029802321
 41
0.0
 46
0.0
 71
     7
 72
     5
  1

  7
Text Style61
 73
     1
 44
1.0
  0
XRECORD
  5
504
102
{ACAD_REACTORS
330
482
102
}
330
482
100
AcDbXrecord
280
     1
102
ACAD_MATT_HEIGHT
140
2.000000029802321
  0
XRECORD
  5
507
102
{ACAD_REACTORS
330
485
102
}
330
485
100
AcDbXrecord
280
     1
 70
     4
 70
     0
 70
     0
 40
1.0
  2
<Omschrijving>
  1
Embedded Object
 10
104.0747844708677
 20
79.40318968847008
 30
0.0
 40
6.000000238418579
 41
0.0
 46
0.0
 71
     4
 72
     5
  1

  7
Text Style73
 73
     1
 44
1.0
  0
XRECORD
  5
506
102
{ACAD_REACTORS
330
485
102
}
330
485
100
AcDbXrecord
280
     1
102
ACAD_MATT_HEIGHT
140
6.000000238418579
  0
XRECORD
  5
509
102
{ACAD_REACTORS
330
488
102
}
330
488
100
AcDbXrecord
280
     1
 70
     4
 70
     0
 70
     0
 40
1.0
  2
<Art._Nummer>
  1
Embedded Object
 10
248.3747844708677
 20
66.90318968847012
 30
0.0
 40
6.000000238418579
 41
0.0
 46
0.0
 71
     4
 72
     5
  1

  7
Text Style73
 73
     1
 44
1.0
  0
XRECORD
  5
508
102
{ACAD_REACTORS
330
488
102
}
330
488
100
AcDbXrecord
280
     1
102
ACAD_MATT_HEIGHT
140
6.000000238418579
  0
XRECORD
  5
50B
102
{ACAD_REACTORS
330
48B
102
}
330
48B
100
AcDbXrecord
280
     1
 70
     4
 70
     0
 70
     0
 40
1.0
  2
<Getekend_door>
  1
Embedded Object
 10
232.0747844708677
 20
88.15318968847012
 30
0.0
 40
2.000000029802321
 41
0.0
 46
0.0
 71
     7
 72
     5
  1

  7
Text Style61
 73
     1
 44
1.0
  0
XRECORD
  5
50A
102
{ACAD_REACTORS
330
48B
102
}
330
48B
100
AcDbXrecord
280
     1
102
ACAD_MATT_HEIGHT
140
2.000000029802321
  0
XRECORD
  5
50D
102
{ACAD_REACTORS
330
48E
102
}
330
48E
100
AcDbXrecord
280
     1
 70
     4
 70
     0
 70
     0
 40
1.0
  2
<Gecontr._door>
  1
Embedded Object
 10
248.0747844708677
 20
88.15318968847012
 30
0.0
 40
2.000000029802321
 41
0.0
 46
0.0
 71
     7
 72
     5
  1

  7
Text Style61
 73
     1
 44
1.0
  0
XRECORD
  5
50C
102
{ACAD_REACTORS
330
48E
102
}
330
48E
100
AcDbXrecord
280
     1
102
ACAD_MATT_HEIGHT
140
2.000000029802321
  0
XRECORD
  5
50F
102
{ACAD_REACTORS
330
491
102
}
330
491
100
AcDbXrecord
280
     1
 70
     4
 70
     0
 70
     0
 40
1.0
  2
FILENAME_AND_PATH
  1
Embedded Object
 10
102.0747844708677
 20
57.90318968847002
 30
0.0
 40
1.049999967217444
 41
0.0
 46
0.0
 71
     7
 72
     5
  1
I:\\TI\\Bibliotheek\\Inventor\\Relais\\TDBE\\TDBE variable.ipt
  7
Text Style81
 73
     1
 44
1.0
  0
XRECORD
  5
50E
102
{ACAD_REACTORS
330
491
102
}
330
491
100
AcDbXrecord
280
     1
102
ACAD_MATT_HEIGHT
140
1.049999967217444
  0
XRECORD
  5
511
102
{ACAD_REACTORS
330
494
102
}
330
494
100
AcDbXrecord
280
     1
 70
     4
 70
     0
 70
     0
 40
1.0
  2
PART_NUMBER
  1
Embedded Object
 10
162.0747844708676
 20
88.15537263605795
 30
0.0
 40
2.000000029802321
 41
0.0
 46
0.0
 71
     7
 72
     5
  1
TDBE variable
  7
Text Style61
 73
     1
 44
1.0
  0
XRECORD
  5
510
102
{ACAD_REACTORS
330
494
102
}
330
494
100
AcDbXrecord
280
     1
102
ACAD_MATT_HEIGHT
140
2.000000029802321
  0
LAYOUT
  5
6B
102
{ACAD_XDICTIONARY
360
549
102
}
102
{ACAD_REACTORS
330
62
102
}
330
62
100
AcDbPlotSettings
  1

  2

  4

  6

 40
0.0
 41
0.0
 42
0.0
 43
0.0
 44
0.0
 45
0.0
 46
0.0
 47
0.0
 48
0.0
 49
0.0
140
0.0
141
0.0
142
1.0
143
1.0
 70
   688
 72
     0
 73
     0
 74
     5
  7

 75
    16
147
1.0
148
0.0
149
0.0
100
AcDbLayout
  1
Layout1
 70
     1
 71
     1
 10
0.0
 20
0.0
 11
210.0
 21
297.0
 12
0.0
 22
0.0
 32
0.0
 14
0.0
 24
0.0
 34
0.0
 15
210.0
 25
297.0
 35
0.0
146
0.0
 13
0.0
 23
0.0
 33
0.0
 16
1.0
 26
0.0
 36
0.0
 17
0.0
 27
1.0
 37
0.0
 76
     0
330
68
  0
LAYOUT
  5
73
102
{ACAD_XDICTIONARY
360
54D
102
}
102
{ACAD_REACTORS
330
62
102
}
330
62
100
AcDbPlotSettings
  1

  2

  4

  6

 40
0.0
 41
0.0
 42
0.0
 43
0.0
 44
0.0
 45
0.0
 46
0.0
 47
0.0
 48
0.0
 49
0.0
140
0.0
141
0.0
142
1.0
143
1.0
 70
   688
 72
     0
 73
     0
 74
     5
  7

 75
    16
147
1.0
148
0.0
149
0.0
100
AcDbLayout
  1
Layout2
 70
     1
 71
     2
 10
0.0
 20
0.0
 11
12.0
 21
9.0
 12
0.0
 22
0.0
 32
0.0
 14
0.0
 24
0.0
 34
0.0
 15
0.0
 25
0.0
 35
0.0
146
0.0
 13
0.0
 23
0.0
 33
0.0
 16
1.0
 26
0.0
 36
0.0
 17
0.0
 27
1.0
 37
0.0
 76
     0
330
70
  0
LAYOUT
  5
6F
102
{ACAD_XDICTIONARY
360
54B
102
}
102
{ACAD_REACTORS
330
62
102
}
330
62
100
AcDbPlotSettings
  1

  2

  4

  6

 40
0.0
 41
0.0
 42
0.0
 43
0.0
 44
0.0
 45
0.0
 46
0.0
 47
0.0
 48
0.0
 49
0.0
140
0.0
141
0.0
142
1.0
143
1.0
 70
  1712
 72
     0
 73
     0
 74
     0
  7

 75
     0
147
1.0
148
0.0
149
0.0
100
AcDbLayout
  1
Model
 70
     1
 71
     0
 10
0.0
 20
0.0
 11
12.0
 21
9.0
 12
0.0
 22
0.0
 32
0.0
 14
0.0
 24
0.0
 34
0.0
 15
0.0
 25
0.0
 35
0.0
146
0.0
 13
0.0
 23
0.0
 33
0.0
 16
1.0
 26
0.0
 36
0.0
 17
0.0
 27
1.0
 37
0.0
 76
     0
330
6C
331
57
  0
MATERIAL
  5
19
102
{ACAD_XDICTIONARY
360
1A
102
}
102
{ACAD_REACTORS
330
10
102
}
330
10
100
AcDbMaterial
  1
ByBlock
 72
     0
 43
0.0208333333333333
 43
0.0
 43
0.0
 43
0.0
 43
0.0
 43
0.0208333333333333
 43
0.0
 43
0.0
 43
0.0
 43
0.0
 43
1.0
 43
0.0
 43
0.0
 43
0.0
 43
0.0
 43
1.0
 77
     0
 47
0.0208333333333333
 47
0.0
 47
0.0
 47
0.0
 47
0.0
 47
0.0208333333333333
 47
0.0
 47
0.0
 47
0.0
 47
0.0
 47
1.0
 47
0.0
 47
0.0
 47
0.0
 47
0.0
 47
1.0
171
     0
 49
0.0208333333333333
 49
0.0
 49
0.0
 49
0.0
 49
0.0
 49
0.0208333333333333
 49
0.0
 49
0.0
 49
0.0
 49
0.0
 49
1.0
 49
0.0
 49
0.0
 49
0.0
 49
0.0
 49
1.0
175
     0
142
0.0208333333333333
142
0.0
142
0.0
142
0.0
142
0.0
142
0.0208333333333333
142
0.0
142
0.0
142
0.0
142
0.0
142
1.0
142
0.0
142
0.0
142
0.0
142
0.0
142
1.0
179
     0
144
0.0208333333333333
144
0.0
144
0.0
144
0.0
144
0.0
144
0.0208333333333333
144
0.0
144
0.0
144
0.0
144
0.0
144
1.0
144
0.0
144
0.0
144
0.0
144
0.0
144
1.0
147
0.0208333333333333
147
0.0
147
0.0
147
0.0
147
0.0
147
0.0208333333333333
147
0.0
147
0.0
147
0.0
147
0.0
147
1.0
147
0.0
147
0.0
147
0.0
147
0.0
147
1.0
  0
MATERIAL
  5
11
102
{ACAD_XDICTIONARY
360
12
102
}
102
{ACAD_REACTORS
330
10
102
}
330
10
100
AcDbMaterial
  1
ByLayer
 72
     0
 43
0.0208333333333333
 43
0.0
 43
0.0
 43
0.0
 43
0.0
 43
0.0208333333333333
 43
0.0
 43
0.0
 43
0.0
 43
0.0
 43
1.0
 43
0.0
 43
0.0
 43
0.0
 43
0.0
 43
1.0
 77
     0
 47
0.0208333333333333
 47
0.0
 47
0.0
 47
0.0
 47
0.0
 47
0.0208333333333333
 47
0.0
 47
0.0
 47
0.0
 47
0.0
 47
1.0
 47
0.0
 47
0.0
 47
0.0
 47
0.0
 47
1.0
171
     0
 49
0.0208333333333333
 49
0.0
 49
0.0
 49
0.0
 49
0.0
 49
0.0208333333333333
 49
0.0
 49
0.0
 49
0.0
 49
0.0
 49
1.0
 49
0.0
 49
0.0
 49
0.0
 49
0.0
 49
1.0
175
     0
142
0.0208333333333333
142
0.0
142
0.0
142
0.0
142
0.0
142
0.0208333333333333
142
0.0
142
0.0
142
0.0
142
0.0
142
1.0
142
0.0
142
0.0
142
0.0
142
0.0
142
1.0
179
     0
144
0.0208333333333333
144
0.0
144
0.0
144
0.0
144
0.0
144
0.0208333333333333
144
0.0
144
0.0
144
0.0
144
0.0
144
1.0
144
0.0
144
0.0
144
0.0
144
0.0
144
1.0
147
0.0208333333333333
147
0.0
147
0.0
147
0.0
147
0.0
147
0.0208333333333333
147
0.0
147
0.0
147
0.0
147
0.0
147
1.0
147
0.0
147
0.0
147
0.0
147
0.0
147
1.0
  0
MATERIAL
  5
21
102
{ACAD_XDICTIONARY
360
22
102
}
102
{ACAD_REACTORS
330
10
102
}
330
10
100
AcDbMaterial
  1
Global
 72
     0
 43
0.0208333333333333
 43
0.0
 43
0.0
 43
0.0
 43
0.0
 43
0.0208333333333333
 43
0.0
 43
0.0
 43
0.0
 43
0.0
 43
1.0
 43
0.0
 43
0.0
 43
0.0
 43
0.0
 43
1.0
 77
     0
 47
0.0208333333333333
 47
0.0
 47
0.0
 47
0.0
 47
0.0
 47
0.0208333333333333
 47
0.0
 47
0.0
 47
0.0
 47
0.0
 47
1.0
 47
0.0
 47
0.0
 47
0.0
 47
0.0
 47
1.0
171
     0
 49
0.0208333333333333
 49
0.0
 49
0.0
 49
0.0
 49
0.0
 49
0.0208333333333333
 49
0.0
 49
0.0
 49
0.0
 49
0.0
 49
1.0
 49
0.0
 49
0.0
 49
0.0
 49
0.0
 49
1.0
175
     0
142
0.0208333333333333
142
0.0
142
0.0
142
0.0
142
0.0
142
0.0208333333333333
142
0.0
142
0.0
142
0.0
142
0.0
142
1.0
142
0.0
142
0.0
142
0.0
142
0.0
142
1.0
179
     0
144
0.0208333333333333
144
0.0
144
0.0
144
0.0
144
0.0
144
0.0208333333333333
144
0.0
144
0.0
144
0.0
144
0.0
144
1.0
144
0.0
144
0.0
144
0.0
144
0.0
144
1.0
147
0.0208333333333333
147
0.0
147
0.0
147
0.0
147
0.0
147
0.0208333333333333
147
0.0
147
0.0
147
0.0
147
0.0
147
1.0
147
0.0
147
0.0
147
0.0
147
0.0
147
1.0
  0
MLEADERSTYLE
  5
67
102
{ACAD_REACTORS
330
66
102
}
330
66
100
AcDbMLeaderStyle
170
     2
171
     1
172
     0
 90
        2
 40
0.0
 41
0.0
173
     1
 91
-1056964608
340
5B
 92
       -2
290
     1
 42
0.09
291
     1
 43
0.36
  3
Standard
 44
0.18
300

342
55
174
     1
178
     6
175
     1
176
     0
 93
-1056964608
 45
0.18
292
     0
297
     0
 46
0.18
 94
-1056964608
 47
1.0
 49
1.0
140
1.0
293
     1
141
0.0
294
     1
177
     0
142
1.0
295
     0
296
     0
143
0.125
1001
ACAD_MLEADERVER
1070
     2
  0
MLINESTYLE
  5
60
102
{ACAD_REACTORS
330
5F
102
}
330
5F
100
AcDbMlineStyle
  2
STANDARD
 70
     0
  3

 62
   256
 51
90.0
 52
90.0
 71
     2
 49
0.5
 62
   256
  6
BYLAYER
 49
-0.5
 62
   256
  6
BYLAYER
  0
ACDBPLACEHOLDER
  5
F
102
{ACAD_REACTORS
330
E
102
}
330
E
  0
SCALE
  5
43
102
{ACAD_REACTORS
330
42
102
}
330
42
100
AcDbScale
 70
     0
300
1:1
140
1.0
141
1.0
290
     1
  0
SCALE
  5
44
102
{ACAD_REACTORS
330
42
102
}
330
42
100
AcDbScale
 70
     0
300
1/128" = 1'-0"
140
0.0078125
141
12.0
290
     0
  0
SCALE
  5
45
102
{ACAD_REACTORS
330
42
102
}
330
42
100
AcDbScale
 70
     0
300
1/64" = 1'-0"
140
0.015625
141
12.0
290
     0
  0
SCALE
  5
46
102
{ACAD_REACTORS
330
42
102
}
330
42
100
AcDbScale
 70
     0
300
1/32" = 1'-0"
140
0.03125
141
12.0
290
     0
  0
SCALE
  5
47
102
{ACAD_REACTORS
330
42
102
}
330
42
100
AcDbScale
 70
     0
300
1/16" = 1'-0"
140
0.0625
141
12.0
290
     0
  0
SCALE
  5
48
102
{ACAD_REACTORS
330
42
102
}
330
42
100
AcDbScale
 70
     0
300
3/32" = 1'-0"
140
0.09375
141
12.0
290
     0
  0
SCALE
  5
49
102
{ACAD_REACTORS
330
42
102
}
330
42
100
AcDbScale
 70
     0
300
1/8" = 1'-0"
140
0.125
141
12.0
290
     0
  0
SCALE
  5
4A
102
{ACAD_REACTORS
330
42
102
}
330
42
100
AcDbScale
 70
     0
300
3/16" = 1'-0"
140
0.1875
141
12.0
290
     0
  0
SCALE
  5
4B
102
{ACAD_REACTORS
330
42
102
}
330
42
100
AcDbScale
 70
     0
300
1/4" = 1'-0"
140
0.25
141
12.0
290
     0
  0
SCALE
  5
4C
102
{ACAD_REACTORS
330
42
102
}
330
42
100
AcDbScale
 70
     0
300
3/8" = 1'-0"
140
0.375
141
12.0
290
     0
  0
SCALE
  5
4D
102
{ACAD_REACTORS
330
42
102
}
330
42
100
AcDbScale
 70
     0
300
1/2" = 1'-0"
140
0.5
141
12.0
290
     0
  0
SCALE
  5
4E
102
{ACAD_REACTORS
330
42
102
}
330
42
100
AcDbScale
 70
     0
300
3/4" = 1'-0"
140
0.75
141
12.0
290
     0
  0
SCALE
  5
4F
102
{ACAD_REACTORS
330
42
102
}
330
42
100
AcDbScale
 70
     0
300
1" = 1'-0"
140
1.0
141
12.0
290
     0
  0
SCALE
  5
50
102
{ACAD_REACTORS
330
42
102
}
330
42
100
AcDbScale
 70
     0
300
1-1/2" = 1'-0"
140
1.5
141
12.0
290
     0
  0
SCALE
  5
51
102
{ACAD_REACTORS
330
42
102
}
330
42
100
AcDbScale
 70
     0
300
3" = 1'-0"
140
3.0
141
12.0
290
     0
  0
SCALE
  5
52
102
{ACAD_REACTORS
330
42
102
}
330
42
100
AcDbScale
 70
     0
300
6" = 1'-0"
140
6.0
141
12.0
290
     0
  0
SCALE
  5
53
102
{ACAD_REACTORS
330
42
102
}
330
42
100
AcDbScale
 70
     0
300
1'-0" = 1'-0"
140
12.0
141
12.0
290
     0
  0
TABLESTYLE
  5
65
102
{ACAD_XDICTIONARY
360
459
102
}
102
{ACAD_REACTORS
330
64
102
}
330
64
100
AcDbTableStyle
  3
Standard
 70
     0
 71
     0
 40
0.06
 41
0.06
280
     0
281
     0
  7
Standard
140
0.18
170
     2
 62
     0
 63
     7
283
     0
274
    -2
284
     1
 64
     0
275
    -2
285
     1
 65
     0
276
    -2
286
     1
 66
     0
277
    -2
287
     1
 67
     0
278
    -2
288
     1
 68
     0
279
    -2
289
     1
 69
     0
  7
Standard
140
0.25
170
     5
 62
     0
 63
     7
283
     0
274
    -2
284
     1
 64
     0
275
    -2
285
     1
 65
     0
276
    -2
286
     1
 66
     0
277
    -2
287
     1
 67
     0
278
    -2
288
     1
 68
     0
279
    -2
289
     1
 69
     0
  7
Standard
140
0.18
170
     5
 62
     0
 63
     7
283
     0
274
    -2
284
     1
 64
     0
275
    -2
285
     1
 65
     0
276
    -2
286
     1
 66
     0
277
    -2
287
     1
 67
     0
278
    -2
288
     1
 68
     0
279
    -2
289
     1
 69
     0
  0
VISUALSTYLE
  5
2F
102
{ACAD_XDICTIONARY
360
521
102
}
102
{ACAD_REACTORS
330
29
102
}
330
29
100
AcDbVisualStyle
  2
2dWireframe
 70
     4
 71
     0
 72
     2
 73
     0
 90
        0
 40
-0.6
 41
-30.0
 62
     5
 63
     7
 74
     1
 91
        4
 64
     7
 65
   257
 75
     1
175
     1
 42
1.0
 92
        0
 66
   257
 43
1.0
 76
     1
 77
     6
 78
     2
 67
     7
 79
     5
170
     0
171
     0
290
     0
174
     0
 93
        1
 44
0.0
173
     0
291
     0
 45
0.0
1001
ACAD
1000
AcDbSavedByObjectVersion
1070
     0
  0
VISUALSTYLE
  5
2E
102
{ACAD_XDICTIONARY
360
51F
102
}
102
{ACAD_REACTORS
330
29
102
}
330
29
100
AcDbVisualStyle
  2
Basic
 70
     7
 71
     1
 72
     0
 73
     1
 90
        0
 40
-0.6
 41
-30.0
 62
     5
 63
     7
 74
     0
 91
        4
 64
     7
 65
   257
 75
     1
175
     1
 42
1.0
 92
        8
 66
     7
 43
1.0
 76
     1
 77
     6
 78
     2
 67
     7
 79
     5
170
     0
171
     0
290
     0
174
     0
 93
        1
 44
0.0
173
     0
291
     1
 45
0.0
1001
ACAD
1000
AcDbSavedByObjectVersion
1070
     0
  0
VISUALSTYLE
  5
35
102
{ACAD_XDICTIONARY
360
52D
102
}
102
{ACAD_REACTORS
330
29
102
}
330
29
100
AcDbVisualStyle
  2
Brighten
 70
    12
 71
     2
 72
     2
 73
     0
 90
        0
 40
-0.6
 41
-30.0
 62
     5
 63
     7
 74
     1
 91
        4
 64
     7
 65
   257
 75
     1
175
     1
 42
1.0
 92
        8
 66
     7
 43
1.0
 76
     1
 77
     6
 78
     2
 67
     7
 79
     5
170
     0
171
     0
290
     0
174
     0
 93
        1
 44
50.0
173
     0
291
     1
 45
0.0
1001
ACAD
1000
AcDbSavedByObjectVersion
1070
     0
  0
VISUALSTYLE
  5
39
102
{ACAD_XDICTIONARY
360
535
102
}
102
{ACAD_REACTORS
330
29
102
}
330
29
100
AcDbVisualStyle
  2
ColorChange
 70
    16
 71
     2
 72
     2
 73
     3
 90
        0
 40
-0.6
 41
-30.0
 62
     5
 63
     8
 74
     1
 91
        4
 64
     7
 65
   257
 75
     1
175
     1
 42
1.0
 92
        8
 66
     8
 43
1.0
 76
     1
 77
     6
 78
     2
 67
     7
 79
     5
170
     0
171
     0
290
     0
174
     0
 93
        1
 44
0.0
173
     0
291
     1
 45
0.0
1001
ACAD
1000
AcDbSavedByObjectVersion
1070
     0
  0
VISUALSTYLE
  5
32
102
{ACAD_XDICTIONARY
360
527
102
}
102
{ACAD_REACTORS
330
29
102
}
330
29
100
AcDbVisualStyle
  2
Conceptual
 70
     9
 71
     3
 72
     2
 73
     0
 90
        0
 40
-0.6
 41
-30.0
 62
     5
 63
     7
 74
     2
 91
        2
 64
     7
 65
   257
 75
     1
175
     1
 42
179.0
 92
        8
 66
     7
 43
1.0
 76
     1
 77
     6
 78
     2
 67
     7
 79
     3
170
     0
171
     0
290
     0
174
     0
 93
        1
 44
0.0
173
     0
291
     0
 45
0.0
1001
ACAD
1000
AcDbSavedByObjectVersion
1070
     0
  0
VISUALSTYLE
  5
34
102
{ACAD_XDICTIONARY
360
52B
102
}
102
{ACAD_REACTORS
330
29
102
}
330
29
100
AcDbVisualStyle
  2
Dim
 70
    11
 71
     2
 72
     2
 73
     0
 90
        0
 40
-0.6
 41
-30.0
 62
     5
 63
     7
 74
     1
 91
        4
 64
     7
 65
   257
 75
     1
175
     1
 42
1.0
 92
        8
 66
     7
 43
1.0
 76
     1
 77
     6
 78
     2
 67
     7
 79
     5
170
     0
171
     0
290
     0
174
     0
 93
        1
 44
-50.0
173
     0
291
     1
 45
0.0
1001
ACAD
1000
AcDbSavedByObjectVersion
1070
     0
  0
VISUALSTYLE
  5
41
102
{ACAD_XDICTIONARY
360
545
102
}
102
{ACAD_REACTORS
330
29
102
}
330
29
100
AcDbVisualStyle
  2
EdgeColorOff
 70
    22
 71
     2
 72
     2
 73
     0
 90
        0
 40
-0.6
 41
-30.0
 62
     5
 63
     7
 74
     1
 91
        4
 64
     7
 65
   257
 75
     1
175
     1
 42
1.0
 92
        8
 66
     7
 43
1.0
 76
     1
 77
     6
 78
     2
 67
     7
 79
     5
170
     0
171
     0
290
     0
174
     0
 93
        1
 44
0.0
173
     0
291
     1
 45
0.0
1001
ACAD
1000
AcDbSavedByObjectVersion
1070
     0
  0
VISUALSTYLE
  5
38
102
{ACAD_XDICTIONARY
360
533
102
}
102
{ACAD_REACTORS
330
29
102
}
330
29
100
AcDbVisualStyle
  2
Facepattern
 70
    15
 71
     2
 72
     2
 73
     0
 90
        0
 40
-0.6
 41
-30.0
 62
     5
 63
     7
 74
     1
 91
        4
 64
     7
 65
   257
 75
     1
175
     1
 42
1.0
 92
        8
 66
     7
 43
1.0
 76
     1
 77
     6
 78
     2
 67
     7
 79
     5
170
     0
171
     0
290
     0
174
     0
 93
        1
 44
0.0
173
     0
291
     1
 45
0.0
1001
ACAD
1000
AcDbSavedByObjectVersion
1070
     0
  0
VISUALSTYLE
  5
2A
102
{ACAD_XDICTIONARY
360
517
102
}
102
{ACAD_REACTORS
330
29
102
}
330
29
100
AcDbVisualStyle
  2
Flat
 70
     0
 71
     2
 72
     1
 73
     1
 90
        2
 40
-0.6
 41
30.0
 62
     5
 63
     7
 74
     0
 91
        0
 64
     7
 65
   257
 75
     1
175
     1
 42
1.0
 92
        8
 66
     7
 43
1.0
 76
     1
 77
     6
 78
     2
 67
     7
 79
     5
170
     0
171
     0
290
     0
174
     0
 93
       13
 44
0.0
173
     0
291
     1
 45
0.0
1001
ACAD
1000
AcDbSavedByObjectVersion
1070
     0
  0
VISUALSTYLE
  5
2B
102
{ACAD_XDICTIONARY
360
519
102
}
102
{ACAD_REACTORS
330
29
102
}
330
29
100
AcDbVisualStyle
  2
FlatWithEdges
 70
     1
 71
     2
 72
     1
 73
     1
 90
        2
 40
-0.6
 41
30.0
 62
     5
 63
     7
 74
     1
 91
        0
 64
     7
 65
   257
 75
     1
175
     1
 42
1.0
 92
        0
 66
   257
 43
1.0
 76
     1
 77
     6
 78
     2
 67
     7
 79
     5
170
     0
171
     0
290
     0
174
     0
 93
       13
 44
0.0
173
     0
291
     1
 45
0.0
1001
ACAD
1000
AcDbSavedByObjectVersion
1070
     0
  0
VISUALSTYLE
  5
2C
102
{ACAD_XDICTIONARY
360
51B
102
}
102
{ACAD_REACTORS
330
29
102
}
330
29
100
AcDbVisualStyle
  2
Gouraud
 70
     2
 71
     2
 72
     2
 73
     1
 90
        2
 40
-0.6
 41
30.0
 62
     5
 63
     7
 74
     0
 91
        0
 64
     7
 65
   257
 75
     1
175
     1
 42
1.0
 92
        0
 66
     7
 43
1.0
 76
     1
 77
     6
 78
     2
 67
     7
 79
     5
170
     0
171
     0
290
     0
174
     0
 93
       13
 44
0.0
173
     0
291
     1
 45
0.0
1001
ACAD
1000
AcDbSavedByObjectVersion
1070
     0
  0
VISUALSTYLE
  5
2D
102
{ACAD_XDICTIONARY
360
51D
102
}
102
{ACAD_REACTORS
330
29
102
}
330
29
100
AcDbVisualStyle
  2
GouraudWithEdges
 70
     3
 71
     2
 72
     2
 73
     1
 90
        2
 40
-0.6
 41
30.0
 62
     5
 63
     7
 74
     1
 91
        0
 64
     7
 65
   257
 75
     1
175
     1
 42
1.0
 92
        0
 66
   257
 43
1.0
 76
     1
 77
     6
 78
     2
 67
     7
 79
     5
170
     0
171
     0
290
     0
174
     0
 93
       13
 44
0.0
173
     0
291
     1
 45
0.0
1001
ACAD
1000
AcDbSavedByObjectVersion
1070
     0
  0
VISUALSTYLE
  5
31
102
{ACAD_XDICTIONARY
360
525
102
}
102
{ACAD_REACTORS
330
29
102
}
330
29
100
AcDbVisualStyle
  2
Hidden
 70
     6
 71
     1
 72
     2
 73
     2
 90
        0
 40
-0.6
 41
-30.0
 62
     5
 63
     7
 74
     2
 91
        2
 64
     7
 65
   257
 75
     2
175
     1
 42
40.0
 92
        0
 66
   257
 43
1.0
 76
     1
 77
     6
 78
     2
 67
     7
 79
     3
170
     0
171
     0
290
     0
174
     0
 93
        1
 44
0.0
173
     0
291
     0
 45
0.0
1001
ACAD
1000
AcDbSavedByObjectVersion
1070
     0
  0
VISUALSTYLE
  5
3F
102
{ACAD_XDICTIONARY
360
541
102
}
102
{ACAD_REACTORS
330
29
102
}
330
29
100
AcDbVisualStyle
  2
JitterOff
 70
    20
 71
     2
 72
     2
 73
     0
 90
        0
 40
-0.6
 41
-30.0
 62
     5
 63
     7
 74
     1
 91
        4
 64
     7
 65
   257
 75
     1
175
     1
 42
1.0
 92
       10
 66
     7
 43
1.0
 76
     1
 77
     6
 78
     2
 67
     7
 79
     5
170
     0
171
     0
290
     0
174
     0
 93
        1
 44
0.0
173
     0
291
     1
 45
0.0
1001
ACAD
1000
AcDbSavedByObjectVersion
1070
     0
  0
VISUALSTYLE
  5
37
102
{ACAD_XDICTIONARY
360
531
102
}
102
{ACAD_REACTORS
330
29
102
}
330
29
100
AcDbVisualStyle
  2
Linepattern
 70
    14
 71
     2
 72
     2
 73
     0
 90
        0
 40
-0.6
 41
-30.0
 62
     5
 63
     7
 74
     1
 91
        4
 64
     7
 65
   257
 75
     7
175
     7
 42
1.0
 92
        8
 66
     7
 43
1.0
 76
     1
 77
     6
 78
     2
 67
     7
 79
     5
170
     0
171
     0
290
     0
174
     0
 93
        1
 44
0.0
173
     0
291
     1
 45
0.0
1001
ACAD
1000
AcDbSavedByObjectVersion
1070
     0
  0
VISUALSTYLE
  5
40
102
{ACAD_XDICTIONARY
360
543
102
}
102
{ACAD_REACTORS
330
29
102
}
330
29
100
AcDbVisualStyle
  2
OverhangOff
 70
    21
 71
     2
 72
     2
 73
     0
 90
        0
 40
-0.6
 41
-30.0
 62
     5
 63
     7
 74
     1
 91
        4
 64
     7
 65
   257
 75
     1
175
     1
 42
1.0
 92
        9
 66
     7
 43
1.0
 76
     1
 77
     6
 78
     2
 67
     7
 79
     5
170
     0
171
     0
290
     0
174
     0
 93
        1
 44
0.0
173
     0
291
     1
 45
0.0
1001
ACAD
1000
AcDbSavedByObjectVersion
1070
     0
  0
VISUALSTYLE
  5
33
102
{ACAD_XDICTIONARY
360
529
102
}
102
{ACAD_REACTORS
330
29
102
}
330
29
100
AcDbVisualStyle
  2
Realistic
 70
     8
 71
     2
 72
     3
 73
     0
 90
        2
 40
-0.6
 41
30.0
 62
     5
 63
     7
 74
     0
 91
        0
 64
     7
 65
   257
 75
     1
175
     1
 42
1.0
 92
        8
 66
   257
 43
1.0
 76
     1
 77
     6
 78
     2
 67
     7
 79
     3
170
     0
171
     0
290
     0
174
     0
 93
       13
 44
0.0
173
     0
291
     0
 45
0.0
1001
ACAD
1000
AcDbSavedByObjectVersion
1070
     0
  0
VISUALSTYLE
  5
3E
102
{ACAD_XDICTIONARY
360
53F
102
}
102
{ACAD_REACTORS
330
29
102
}
330
29
100
AcDbVisualStyle
  2
Shaded
 70
    27
 71
     2
 72
     2
 73
     1
 90
        2
 40
-0.6
 41
30.0
 62
     5
 63
     7
 74
     0
 91
        4
 64
     7
 65
   257
 75
     1
175
     1
 42
1.0
 92
        8
 66
   257
 43
1.0
 76
     1
 77
     6
 78
     2
 67
     8
 79
     3
170
     0
171
     0
290
     0
174
     0
 93
        5
 44
0.0
173
     0
291
     0
 45
0.0
1001
ACAD
1000
AcDbSavedByObjectVersion
1070
     0
  0
VISUALSTYLE
  5
3D
102
{ACAD_XDICTIONARY
360
53D
102
}
102
{ACAD_REACTORS
330
29
102
}
330
29
100
AcDbVisualStyle
  2
Shaded with edges
 70
    26
 71
     2
 72
     2
 73
     1
 90
        2
 40
-0.6
 41
30.0
 62
     5
 63
     7
 74
     1
 91
       10
 64
     7
 65
   257
 75
     2
175
     1
 42
1.0
 92
        8
 66
   257
 43
1.0
 76
     1
 77
     6
 78
     2
 67
     7
 79
     3
170
     0
171
     0
290
     0
174
     0
 93
        5
 44
0.0
173
     0
291
     0
 45
0.0
1001
ACAD
1000
AcDbSavedByObjectVersion
1070
     0
  0
VISUALSTYLE
  5
3A
102
{ACAD_XDICTIONARY
360
537
102
}
102
{ACAD_REACTORS
330
29
102
}
330
29
100
AcDbVisualStyle
  2
Shades of Gray
 70
    23
 71
     2
 72
     2
 73
     3
 90
        0
 40
-0.6
 41
-30.0
 62
     5
 63
     7
 74
     2
 91
        2
 64
     7
 65
     7
 75
     1
175
     1
 42
40.0
 92
        8
 66
     7
 43
1.0
 76
     1
 77
     6
 78
     2
 67
     7
 79
     3
170
     0
171
     0
290
     0
174
     0
 93
        1
 44
0.0
173
     0
291
     0
 45
0.0
1001
ACAD
1000
AcDbSavedByObjectVersion
1070
     0
  0
VISUALSTYLE
  5
3B
102
{ACAD_XDICTIONARY
360
539
102
}
102
{ACAD_REACTORS
330
29
102
}
330
29
100
AcDbVisualStyle
  2
Sketchy
 70
    24
 71
     1
 72
     2
 73
     2
 90
        0
 40
-0.6
 41
-30.0
 62
     5
 63
     7
 74
     2
 91
        2
 64
     7
 65
     7
 75
     1
175
     1
 42
40.0
 92
       11
 66
     7
 43
1.0
 76
     1
 77
     6
 78
     2
 67
     7
 79
     6
170
     0
171
     0
290
     0
174
     0
 93
        1
 44
0.0
173
     0
291
     0
 45
0.0
1001
ACAD
1000
AcDbSavedByObjectVersion
1070
     0
  0
VISUALSTYLE
  5
36
102
{ACAD_XDICTIONARY
360
52F
102
}
102
{ACAD_REACTORS
330
29
102
}
330
29
100
AcDbVisualStyle
  2
Thicken
 70
    13
 71
     2
 72
     2
 73
     0
 90
        0
 40
-0.6
 41
-30.0
 62
     5
 63
     7
 74
     1
 91
        4
 64
     7
 65
   257
 75
     1
175
     1
 42
1.0
 92
       12
 66
     7
 43
1.0
 76
     1
 77
     6
 78
     2
 67
     7
 79
     5
170
     0
171
     0
290
     0
174
     0
 93
        1
 44
0.0
173
     0
291
     1
 45
0.0
1001
ACAD
1000
AcDbSavedByObjectVersion
1070
     0
  0
VISUALSTYLE
  5
30
102
{ACAD_XDICTIONARY
360
523
102
}
102
{ACAD_REACTORS
330
29
102
}
330
29
100
AcDbVisualStyle
  2
Wireframe
 70
     5
 71
     0
 72
     2
 73
     0
 90
        0
 40
-0.6
 41
-30.0
 62
     5
 63
     7
 74
     1
 91
        4
 64
     7
 65
   257
 75
     1
175
     1
 42
1.0
 92
        0
 66
   257
 43
1.0
 76
     1
 77
     6
 78
     2
 67
     7
 79
     3
170
     0
171
     0
290
     0
174
     0
 93
        1
 44
0.0
173
     0
291
     0
 45
0.0
1001
ACAD
1000
AcDbSavedByObjectVersion
1070
     0
  0
VISUALSTYLE
  5
3C
102
{ACAD_XDICTIONARY
360
53B
102
}
102
{ACAD_REACTORS
330
29
102
}
330
29
100
AcDbVisualStyle
  2
X-Ray
 70
    25
 71
     2
 72
     2
 73
     1
 90
        1
 40
0.5
 41
-30.0
 62
     5
 63
     7
 74
     1
 91
        0
 64
     7
 65
   257
 75
     1
175
     1
 42
1.0
 92
        8
 66
     7
 43
1.0
 76
     1
 77
     6
 78
     2
 67
     7
 79
     3
170
     0
171
     0
290
     0
174
     0
 93
       13
 44
0.0
173
     0
291
     0
 45
0.0
1001
ACAD
1000
AcDbSavedByObjectVersion
1070
     0
  0
DICTIONARYVAR
  5
458
102
{ACAD_REACTORS
330
455
102
}
330
455
100
DictionaryVariables
280
     0
  1
1:1
  0
DICTIONARYVAR
  5
457
102
{ACAD_REACTORS
330
455
102
}
330
455
100
DictionaryVariables
280
     0
  1
STANDARD
  0
DICTIONARYVAR
  5
456
102
{ACAD_REACTORS
330
455
102
}
330
455
100
DictionaryVariables
280
     0
  1
STANDARD
  0
DICTIONARYVAR
  5
4E4
102
{ACAD_REACTORS
330
455
102
}
330
455
100
DictionaryVariables
280
     0
  1
1
  0
DICTIONARYVAR
  5
4E3
102
{ACAD_REACTORS
330
455
102
}
330
455
100
DictionaryVariables
280
     0
  1
1
  0
DICTIONARYVAR
  5
4E2
102
{ACAD_REACTORS
330
455
102
}
330
455
100
DictionaryVariables
280
     0
  1
0
  0
DICTIONARYVAR
  5
4DF
102
{ACAD_REACTORS
330
455
102
}
330
455
100
DictionaryVariables
280
     0
  1
0
  0
DICTIONARYVAR
  5
4E0
102
{ACAD_REACTORS
330
455
102
}
330
455
100
DictionaryVariables
280
     0
  1
0
  0
DICTIONARYVAR
  5
4DE
102
{ACAD_REACTORS
330
455
102
}
330
455
100
DictionaryVariables
280
     0
  1
2
  0
DICTIONARYVAR
  5
4E5
102
{ACAD_REACTORS
330
455
102
}
330
455
100
DictionaryVariables
280
     0
  1
1.570796
  0
DICTIONARYVAR
  5
4E6
102
{ACAD_REACTORS
330
455
102
}
330
455
100
DictionaryVariables
280
     0
  1
1.570796
  0
DICTIONARYVAR
  5
4E7
102
{ACAD_REACTORS
330
455
102
}
330
455
100
DictionaryVariables
280
     0
  1
-122.394000
  0
DICTIONARYVAR
  5
4DD
102
{ACAD_REACTORS
330
455
102
}
330
455
100
DictionaryVariables
280
     0
  1
1
  0
DICTIONARYVAR
  5
4E1
102
{ACAD_REACTORS
330
455
102
}
330
455
100
DictionaryVariables
280
     0
  1
127
  0
DICTIONARYVAR
  5
4E8
102
{ACAD_REACTORS
330
455
102
}
330
455
100
DictionaryVariables
280
     0
  1
2
  0
DICTIONARY
  5
549
330
6B
100
AcDbDictionary
280
     1
281
     1
  3
ACAD_XREC_ROUNDTRIP
360
54A
  0
DICTIONARY
  5
54D
330
73
100
AcDbDictionary
280
     1
281
     1
  3
ACAD_XREC_ROUNDTRIP
360
54E
  0
DICTIONARY
  5
54B
330
6F
100
AcDbDictionary
280
     1
281
     1
  3
ACAD_XREC_ROUNDTRIP
360
54C
  0
DICTIONARY
  5
1A
330
19
100
AcDbDictionary
280
     1
281
     1
  3
ACAD_XREC_ROUNDTRIP
360
515
  3
BUMPTILE
360
1C
  3
DIFFUSETILE
360
1B
  3
OPACITYTILE
360
1F
  3
REFLECTIONTILE
360
1E
  3
REFRACTIONTILE
360
20
  3
SPECULARTILE
360
1D
  0
DICTIONARY
  5
12
330
11
100
AcDbDictionary
280
     1
281
     1
  3
ACAD_XREC_ROUNDTRIP
360
514
  3
BUMPTILE
360
14
  3
DIFFUSETILE
360
13
  3
OPACITYTILE
360
17
  3
REFLECTIONTILE
360
16
  3
REFRACTIONTILE
360
18
  3
SPECULARTILE
360
15
  0
DICTIONARY
  5
22
330
21
100
AcDbDictionary
280
     1
281
     1
  3
ACAD_XREC_ROUNDTRIP
360
516
  3
BUMPTILE
360
24
  3
DIFFUSETILE
360
23
  3
OPACITYTILE
360
27
  3
REFLECTIONTILE
360
26
  3
REFRACTIONTILE
360
28
  3
SPECULARTILE
360
25
  0
DICTIONARY
  5
459
330
65
100
AcDbDictionary
280
     1
281
     1
  3
ACAD_ROUNDTRIP_2008_TABLESTYLE_CELLSTYLEMAP
360
4E9
  3
ACAD_XREC_ROUNDTRIP
360
547
  0
DICTIONARY
  5
521
330
2F
100
AcDbDictionary
280
     1
281
     1
  3
ACAD_XREC_ROUNDTRIP
360
522
  0
DICTIONARY
  5
51F
330
2E
100
AcDbDictionary
280
     1
281
     1
  3
ACAD_XREC_ROUNDTRIP
360
520
  0
DICTIONARY
  5
52D
330
35
100
AcDbDictionary
280
     1
281
     1
  3
ACAD_XREC_ROUNDTRIP
360
52E
  0
DICTIONARY
  5
535
330
39
100
AcDbDictionary
280
     1
281
     1
  3
ACAD_XREC_ROUNDTRIP
360
536
  0
DICTIONARY
  5
527
330
32
100
AcDbDictionary
280
     1
281
     1
  3
ACAD_XREC_ROUNDTRIP
360
528
  0
DICTIONARY
  5
52B
330
34
100
AcDbDictionary
280
     1
281
     1
  3
ACAD_XREC_ROUNDTRIP
360
52C
  0
DICTIONARY
  5
545
330
41
100
AcDbDictionary
280
     1
281
     1
  3
ACAD_XREC_ROUNDTRIP
360
546
  0
DICTIONARY
  5
533
330
38
100
AcDbDictionary
280
     1
281
     1
  3
ACAD_XREC_ROUNDTRIP
360
534
  0
DICTIONARY
  5
517
330
2A
100
AcDbDictionary
280
     1
281
     1
  3
ACAD_XREC_ROUNDTRIP
360
518
  0
DICTIONARY
  5
519
330
2B
100
AcDbDictionary
280
     1
281
     1
  3
ACAD_XREC_ROUNDTRIP
360
51A
  0
DICTIONARY
  5
51B
330
2C
100
AcDbDictionary
280
     1
281
     1
  3
ACAD_XREC_ROUNDTRIP
360
51C
  0
DICTIONARY
  5
51D
330
2D
100
AcDbDictionary
280
     1
281
     1
  3
ACAD_XREC_ROUNDTRIP
360
51E
  0
DICTIONARY
  5
525
330
31
100
AcDbDictionary
280
     1
281
     1
  3
ACAD_XREC_ROUNDTRIP
360
526
  0
DICTIONARY
  5
541
330
3F
100
AcDbDictionary
280
     1
281
     1
  3
ACAD_XREC_ROUNDTRIP
360
542
  0
DICTIONARY
  5
531
330
37
100
AcDbDictionary
280
     1
281
     1
  3
ACAD_XREC_ROUNDTRIP
360
532
  0
DICTIONARY
  5
543
330
40
100
AcDbDictionary
280
     1
281
     1
  3
ACAD_XREC_ROUNDTRIP
360
544
  0
DICTIONARY
  5
529
330
33
100
AcDbDictionary
280
     1
281
     1
  3
ACAD_XREC_ROUNDTRIP
360
52A
  0
DICTIONARY
  5
53F
330
3E
100
AcDbDictionary
280
     1
281
     1
  3
ACAD_XREC_ROUNDTRIP
360
540
  0
DICTIONARY
  5
53D
330
3D
100
AcDbDictionary
280
     1
281
     1
  3
ACAD_XREC_ROUNDTRIP
360
53E
  0
DICTIONARY
  5
537
330
3A
100
AcDbDictionary
280
     1
281
     1
  3
ACAD_XREC_ROUNDTRIP
360
538
  0
DICTIONARY
  5
539
330
3B
100
AcDbDictionary
280
     1
281
     1
  3
ACAD_XREC_ROUNDTRIP
360
53A
  0
DICTIONARY
  5
52F
330
36
100
AcDbDictionary
280
     1
281
     1
  3
ACAD_XREC_ROUNDTRIP
360
530
  0
DICTIONARY
  5
523
330
30
100
AcDbDictionary
280
     1
281
     1
  3
ACAD_XREC_ROUNDTRIP
360
524
  0
DICTIONARY
  5
53B
330
3C
100
AcDbDictionary
280
     1
281
     1
  3
ACAD_XREC_ROUNDTRIP
360
53C
  0
XRECORD
  5
54A
102
{ACAD_REACTORS
330
549
102
}
330
549
100
AcDbXrecord
280
     1
102
SHADEPLOT
 70
     0
102
SHADEPLOTRESLEVEL
 70
     2
102
SHADEPLOTCUSTOMDPI
 70
   300
  0
XRECORD
  5
54E
102
{ACAD_REACTORS
330
54D
102
}
330
54D
100
AcDbXrecord
280
     1
102
SHADEPLOT
 70
     0
102
SHADEPLOTRESLEVEL
 70
     2
102
SHADEPLOTCUSTOMDPI
 70
   300
  0
XRECORD
  5
54C
102
{ACAD_REACTORS
330
54B
102
}
330
54B
100
AcDbXrecord
280
     1
102
SHADEPLOT
 70
     0
102
SHADEPLOTRESLEVEL
 70
     2
102
SHADEPLOTCUSTOMDPI
 70
   300
  0
XRECORD
  5
515
102
{ACAD_REACTORS
330
1A
102
}
330
1A
100
AcDbXrecord
280
     1
102
MATERIAL
148
0.0
149
0.0
149
0.0
 93
        0
 94
      127
282
     0
 72
     0
 77
     0
171
     0
175
     0
179
     0
273
     0
  0
XRECORD
  5
1C
102
{ACAD_REACTORS
330
1A
102
}
330
1A
100
AcDbXrecord
280
     1
270
     1
271
     1
  0
XRECORD
  5
1B
102
{ACAD_REACTORS
330
1A
102
}
330
1A
100
AcDbXrecord
280
     1
270
     1
271
     1
  0
XRECORD
  5
1F
102
{ACAD_REACTORS
330
1A
102
}
330
1A
100
AcDbXrecord
280
     1
270
     1
271
     1
  0
XRECORD
  5
1E
102
{ACAD_REACTORS
330
1A
102
}
330
1A
100
AcDbXrecord
280
     1
270
     1
271
     1
  0
XRECORD
  5
20
102
{ACAD_REACTORS
330
1A
102
}
330
1A
100
AcDbXrecord
280
     1
270
     1
271
     1
  0
XRECORD
  5
1D
102
{ACAD_REACTORS
330
1A
102
}
330
1A
100
AcDbXrecord
280
     1
270
     1
271
     1
  0
XRECORD
  5
514
102
{ACAD_REACTORS
330
12
102
}
330
12
100
AcDbXrecord
280
     1
102
MATERIAL
148
0.0
149
0.0
149
0.0
 93
        0
 94
      127
282
     0
 72
     0
 77
     0
171
     0
175
     0
179
     0
273
     0
  0
XRECORD
  5
14
102
{ACAD_REACTORS
330
12
102
}
330
12
100
AcDbXrecord
280
     1
270
     1
271
     1
  0
XRECORD
  5
13
102
{ACAD_REACTORS
330
12
102
}
330
12
100
AcDbXrecord
280
     1
270
     1
271
     1
  0
XRECORD
  5
17
102
{ACAD_REACTORS
330
12
102
}
330
12
100
AcDbXrecord
280
     1
270
     1
271
     1
  0
XRECORD
  5
16
102
{ACAD_REACTORS
330
12
102
}
330
12
100
AcDbXrecord
280
     1
270
     1
271
     1
  0
XRECORD
  5
18
102
{ACAD_REACTORS
330
12
102
}
330
12
100
AcDbXrecord
280
     1
270
     1
271
     1
  0
XRECORD
  5
15
102
{ACAD_REACTORS
330
12
102
}
330
12
100
AcDbXrecord
280
     1
270
     1
271
     1
  0
XRECORD
  5
516
102
{ACAD_REACTORS
330
22
102
}
330
22
100
AcDbXrecord
280
     1
102
MATERIAL
148
0.0
149
0.0
149
0.0
 93
        0
 94
      127
282
     0
 72
     0
 77
     0
171
     0
175
     0
179
     0
273
     0
  0
XRECORD
  5
24
102
{ACAD_REACTORS
330
22
102
}
330
22
100
AcDbXrecord
280
     1
270
     1
271
     1
  0
XRECORD
  5
23
102
{ACAD_REACTORS
330
22
102
}
330
22
100
AcDbXrecord
280
     1
270
     1
271
     1
  0
XRECORD
  5
27
102
{ACAD_REACTORS
330
22
102
}
330
22
100
AcDbXrecord
280
     1
270
     1
271
     1
  0
XRECORD
  5
26
102
{ACAD_REACTORS
330
22
102
}
330
22
100
AcDbXrecord
280
     1
270
     1
271
     1
  0
XRECORD
  5
28
102
{ACAD_REACTORS
330
22
102
}
330
22
100
AcDbXrecord
280
     1
270
     1
271
     1
  0
XRECORD
  5
25
102
{ACAD_REACTORS
330
22
102
}
330
22
100
AcDbXrecord
280
     1
270
     1
271
     1
  0
CELLSTYLEMAP
  5
4E9
102
{ACAD_REACTORS
330
459
102
}
330
459
100
AcDbCellStyleMap
 90
        3
300
CELLSTYLE
  1
TABLEFORMAT_BEGIN
 90
        5
170
     1
 91
        0
 92
    32768
 62
   257
 93
        1
300
CONTENTFORMAT
  1
CONTENTFORMAT_BEGIN
 90
        0
 91
        0
 92
      512
 93
        0
300

 40
0.0
140
1.0
 94
        5
 62
     0
340
55
144
0.25
309
CONTENTFORMAT_END
171
     1
301
MARGIN
  1
CELLMARGIN_BEGIN
 40
0.06
 40
0.06
 40
0.06
 40
0.06
 40
0.18
 40
0.18
309
CELLMARGIN_END
 94
        6
 95
        1
302
GRIDFORMAT
  1
GRIDFORMAT_BEGIN
 90
        0
 91
        1
 62
     0
 92
       -2
340
0
 93
        0
 40
0.045
309
GRIDFORMAT_END
 95
        2
302
GRIDFORMAT
  1
GRIDFORMAT_BEGIN
 90
        0
 91
        1
 62
     0
 92
       -2
340
0
 93
        0
 40
0.045
309
GRIDFORMAT_END
 95
        4
302
GRIDFORMAT
  1
GRIDFORMAT_BEGIN
 90
        0
 91
        1
 62
     0
 92
       -2
340
0
 93
        0
 40
0.045
309
GRIDFORMAT_END
 95
        8
302
GRIDFORMAT
  1
GRIDFORMAT_BEGIN
 90
        0
 91
        1
 62
     0
 92
       -2
340
0
 93
        0
 40
0.045
309
GRIDFORMAT_END
 95
       16
302
GRIDFORMAT
  1
GRIDFORMAT_BEGIN
 90
        0
 91
        1
 62
     0
 92
       -2
340
0
 93
        0
 40
0.045
309
GRIDFORMAT_END
 95
       32
302
GRIDFORMAT
  1
GRIDFORMAT_BEGIN
 90
        0
 91
        1
 62
     0
 92
       -2
340
0
 93
        0
 40
0.045
309
GRIDFORMAT_END
309
TABLEFORMAT_END
  1
CELLSTYLE_BEGIN
 90
        1
 91
        1
300
_TITLE
309
CELLSTYLE_END
300
CELLSTYLE
  1
TABLEFORMAT_BEGIN
 90
        5
170
     1
 91
        0
 92
        0
 62
   257
 93
        1
300
CONTENTFORMAT
  1
CONTENTFORMAT_BEGIN
 90
        0
 91
        0
 92
      512
 93
        0
300

 40
0.0
140
1.0
 94
        5
 62
     0
340
55
144
0.18
309
CONTENTFORMAT_END
171
     1
301
MARGIN
  1
CELLMARGIN_BEGIN
 40
0.06
 40
0.06
 40
0.06
 40
0.06
 40
0.18
 40
0.18
309
CELLMARGIN_END
 94
        6
 95
        1
302
GRIDFORMAT
  1
GRIDFORMAT_BEGIN
 90
        0
 91
        1
 62
     0
 92
       -2
340
0
 93
        0
 40
0.045
309
GRIDFORMAT_END
 95
        2
302
GRIDFORMAT
  1
GRIDFORMAT_BEGIN
 90
        0
 91
        1
 62
     0
 92
       -2
340
0
 93
        0
 40
0.045
309
GRIDFORMAT_END
 95
        4
302
GRIDFORMAT
  1
GRIDFORMAT_BEGIN
 90
        0
 91
        1
 62
     0
 92
       -2
340
0
 93
        0
 40
0.045
309
GRIDFORMAT_END
 95
        8
302
GRIDFORMAT
  1
GRIDFORMAT_BEGIN
 90
        0
 91
        1
 62
     0
 92
       -2
340
0
 93
        0
 40
0.045
309
GRIDFORMAT_END
 95
       16
302
GRIDFORMAT
  1
GRIDFORMAT_BEGIN
 90
        0
 91
        1
 62
     0
 92
       -2
340
0
 93
        0
 40
0.045
309
GRIDFORMAT_END
 95
       32
302
GRIDFORMAT
  1
GRIDFORMAT_BEGIN
 90
        0
 91
        1
 62
     0
 92
       -2
340
0
 93
        0
 40
0.045
309
GRIDFORMAT_END
309
TABLEFORMAT_END
  1
CELLSTYLE_BEGIN
 90
        2
 91
        1
300
_HEADER
309
CELLSTYLE_END
300
CELLSTYLE
  1
TABLEFORMAT_BEGIN
 90
        5
170
     1
 91
        0
 92
        0
 62
   257
 93
        1
300
CONTENTFORMAT
  1
CONTENTFORMAT_BEGIN
 90
        0
 91
        0
 92
      512
 93
        0
300

 40
0.0
140
1.0
 94
        2
 62
     0
340
55
144
0.18
309
CONTENTFORMAT_END
171
     1
301
MARGIN
  1
CELLMARGIN_BEGIN
 40
0.06
 40
0.06
 40
0.06
 40
0.06
 40
0.18
 40
0.18
309
CELLMARGIN_END
 94
        6
 95
        1
302
GRIDFORMAT
  1
GRIDFORMAT_BEGIN
 90
        0
 91
        1
 62
     0
 92
       -2
340
0
 93
        0
 40
0.045
309
GRIDFORMAT_END
 95
        2
302
GRIDFORMAT
  1
GRIDFORMAT_BEGIN
 90
        0
 91
        1
 62
     0
 92
       -2
340
0
 93
        0
 40
0.045
309
GRIDFORMAT_END
 95
        4
302
GRIDFORMAT
  1
GRIDFORMAT_BEGIN
 90
        0
 91
        1
 62
     0
 92
       -2
340
0
 93
        0
 40
0.045
309
GRIDFORMAT_END
 95
        8
302
GRIDFORMAT
  1
GRIDFORMAT_BEGIN
 90
        0
 91
        1
 62
     0
 92
       -2
340
0
 93
        0
 40
0.045
309
GRIDFORMAT_END
 95
       16
302
GRIDFORMAT
  1
GRIDFORMAT_BEGIN
 90
        0
 91
        1
 62
     0
 92
       -2
340
0
 93
        0
 40
0.045
309
GRIDFORMAT_END
 95
       32
302
GRIDFORMAT
  1
GRIDFORMAT_BEGIN
 90
        0
 91
        1
 62
     0
 92
       -2
340
0
 93
        0
 40
0.045
309
GRIDFORMAT_END
309
TABLEFORMAT_END
  1
CELLSTYLE_BEGIN
 90
        3
 91
        2
300
_DATA
309
CELLSTYLE_END
  0
XRECORD
  5
547
102
{ACAD_REACTORS
330
459
102
}
330
459
100
AcDbXrecord
280
     1
102
ACAD_ROUNDTRIP_PRE2007_TABLESTYLE
 90
      512
 91
        0
  1

 92
      512
 93
        0
  2

 94
      512
 95
        0
  3

  0
XRECORD
  5
522
102
{ACAD_REACTORS
330
521
102
}
330
521
100
AcDbXrecord
280
     1
102
RTVSPropertyOp0
 70
     1
102
RTVSPropertyOp1
 70
     1
102
RTVSPropertyOp2
 70
     1
102
RTVSPropertyOp3
 70
     1
102
RTVSPropertyOp4
 70
     1
102
RTVSPropertyOp5
 70
     1
102
RTVSPropertyOp6
 70
     1
102
RTVSPropertyOp7
 70
     1
102
RTVSPropertyOp8
 70
     1
102
RTVSPropertyOp9
 70
     1
102
RTVSPropertyOp10
 70
     1
102
RTVSPropertyOp11
 70
     1
102
RTVSPropertyOp12
 70
     1
102
RTVSPropertyOp13
 70
     1
102
RTVSPropertyOp14
 70
     1
102
RTVSPropertyOp15
 70
     1
102
RTVSPropertyOp16
 70
     1
102
RTVSPropertyOp17
 70
     1
102
RTVSPropertyOp18
 70
     1
102
RTVSPropertyOp19
 70
     1
102
RTVSPropertyOp20
 70
     1
102
RTVSPropertyOp21
 70
     1
102
RTVSPropertyOp22
 70
     1
102
RTVSPropertyOp23
 70
     1
102
RTVSPropertyOp24
 70
     1
102
RTVSPropertyOp25
 70
     1
102
RTVSPropertyOp26
 70
     1
102
RTVSPropertyOp27
 70
     1
102
RTVSPropertyOp28
 70
     1
102
RTVSPropertyOp29
 70
     1
102
RTVSPropertyOp30
 70
     1
102
RTVSPropertyOp31
 70
     1
102
RTVSPropertyOp32
 70
     1
  0
XRECORD
  5
520
102
{ACAD_REACTORS
330
51F
102
}
330
51F
100
AcDbXrecord
280
     1
102
RTVSPropertyOp0
 70
     1
102
RTVSPropertyOp1
 70
     1
102
RTVSPropertyOp2
 70
     1
102
RTVSPropertyOp3
 70
     1
102
RTVSPropertyOp4
 70
     1
102
RTVSPropertyOp5
 70
     1
102
RTVSPropertyOp6
 70
     1
102
RTVSPropertyOp7
 70
     1
102
RTVSPropertyOp8
 70
     1
102
RTVSPropertyOp9
 70
     1
102
RTVSPropertyOp10
 70
     1
102
RTVSPropertyOp11
 70
     1
102
RTVSPropertyOp12
 70
     1
102
RTVSPropertyOp13
 70
     1
102
RTVSPropertyOp14
 70
     1
102
RTVSPropertyOp15
 70
     1
102
RTVSPropertyOp16
 70
     1
102
RTVSPropertyOp17
 70
     1
102
RTVSPropertyOp18
 70
     1
102
RTVSPropertyOp19
 70
     1
102
RTVSPropertyOp20
 70
     1
102
RTVSPropertyOp21
 70
     1
102
RTVSPropertyOp22
 70
     1
102
RTVSPropertyOp23
 70
     1
102
RTVSPropertyOp24
 70
     1
102
RTVSPropertyOp25
 70
     1
102
RTVSPropertyOp26
 70
     1
102
RTVSPropertyOp27
 70
     1
102
RTVSPropertyOp28
 70
     1
102
RTVSPropertyOp29
 70
     1
102
RTVSPropertyOp30
 70
     1
102
RTVSPropertyOp31
 70
     1
102
RTVSPropertyOp32
 70
     1
  0
XRECORD
  5
52E
102
{ACAD_REACTORS
330
52D
102
}
330
52D
100
AcDbXrecord
280
     1
102
RTVSPropertyOp0
 70
     1
102
RTVSPropertyOp1
 70
     1
102
RTVSPropertyOp2
 70
     1
102
RTVSPropertyOp3
 70
     1
102
RTVSPropertyOp4
 70
     1
102
RTVSPropertyOp5
 70
     1
102
RTVSPropertyOp6
 70
     1
102
RTVSPropertyOp7
 70
     1
102
RTVSPropertyOp8
 70
     1
102
RTVSPropertyOp9
 70
     1
102
RTVSPropertyOp10
 70
     1
102
RTVSPropertyOp11
 70
     1
102
RTVSPropertyOp12
 70
     1
102
RTVSPropertyOp13
 70
     1
102
RTVSPropertyOp14
 70
     1
102
RTVSPropertyOp15
 70
     1
102
RTVSPropertyOp16
 70
     1
102
RTVSPropertyOp17
 70
     1
102
RTVSPropertyOp18
 70
     1
102
RTVSPropertyOp19
 70
     1
102
RTVSPropertyOp20
 70
     1
102
RTVSPropertyOp21
 70
     1
102
RTVSPropertyOp22
 70
     1
102
RTVSPropertyOp23
 70
     1
102
RTVSPropertyOp24
 70
     1
102
RTVSPropertyOp25
 70
     1
102
RTVSPropertyOp26
 70
     1
102
RTVSPropertyOp27
 70
     1
102
RTVSPropertyOp28
 70
     1
102
RTVSPropertyOp29
 70
     1
102
RTVSPropertyOp30
 70
     1
102
RTVSPropertyOp31
 70
     1
102
RTVSPropertyOp32
 70
     1
  0
XRECORD
  5
536
102
{ACAD_REACTORS
330
535
102
}
330
535
100
AcDbXrecord
280
     1
102
RTVSPropertyOp0
 70
     1
102
RTVSPropertyOp1
 70
     1
102
RTVSPropertyOp2
 70
     1
102
RTVSPropertyOp3
 70
     1
102
RTVSPropertyOp4
 70
     1
102
RTVSPropertyOp5
 70
     1
102
RTVSPropertyOp6
 70
     1
102
RTVSPropertyOp7
 70
     1
102
RTVSPropertyOp8
 70
     1
102
RTVSPropertyOp9
 70
     1
102
RTVSPropertyOp10
 70
     1
102
RTVSPropertyOp11
 70
     1
102
RTVSPropertyOp12
 70
     1
102
RTVSPropertyOp13
 70
     1
102
RTVSPropertyOp14
 70
     1
102
RTVSPropertyOp15
 70
     1
102
RTVSPropertyOp16
 70
     1
102
RTVSPropertyOp17
 70
     1
102
RTVSPropertyOp18
 70
     1
102
RTVSPropertyOp19
 70
     1
102
RTVSPropertyOp20
 70
     1
102
RTVSPropertyOp21
 70
     1
102
RTVSPropertyOp22
 70
     1
102
RTVSPropertyOp23
 70
     1
102
RTVSPropertyOp24
 70
     1
102
RTVSPropertyOp25
 70
     1
102
RTVSPropertyOp26
 70
     1
102
RTVSPropertyOp27
 70
     1
102
RTVSPropertyOp28
 70
     1
102
RTVSPropertyOp29
 70
     1
102
RTVSPropertyOp30
 70
     1
102
RTVSPropertyOp31
 70
     1
102
RTVSPropertyOp32
 70
     1
  0
XRECORD
  5
528
102
{ACAD_REACTORS
330
527
102
}
330
527
100
AcDbXrecord
280
     1
102
RTVSPropertyOp0
 70
     1
102
RTVSPropertyOp1
 70
     1
102
RTVSPropertyOp2
 70
     1
102
RTVSPropertyOp3
 70
     1
102
RTVSPropertyOp4
 70
     1
102
RTVSPropertyOp5
 70
     1
102
RTVSPropertyOp6
 70
     1
102
RTVSPropertyOp7
 70
     1
102
RTVSPropertyOp8
 70
     1
102
RTVSPropertyOp9
 70
     1
102
RTVSPropertyOp10
 70
     1
102
RTVSPropertyOp11
 70
     1
102
RTVSPropertyOp12
 70
     1
102
RTVSPropertyOp13
 70
     1
102
RTVSPropertyOp14
 70
     1
102
RTVSPropertyOp15
 70
     1
102
RTVSPropertyOp16
 70
     1
102
RTVSPropertyOp17
 70
     1
102
RTVSPropertyOp18
 70
     1
102
RTVSPropertyOp19
 70
     1
102
RTVSPropertyOp20
 70
     1
102
RTVSPropertyOp21
 70
     1
102
RTVSPropertyOp22
 70
     1
102
RTVSPropertyOp23
 70
     1
102
RTVSPropertyOp24
 70
     1
102
RTVSPropertyOp25
 70
     1
102
RTVSPropertyOp26
 70
     1
102
RTVSPropertyOp27
 70
     1
102
RTVSPropertyOp28
 70
     1
102
RTVSPropertyOp29
 70
     1
102
RTVSPropertyOp30
 70
     1
102
RTVSPropertyOp31
 70
     1
102
RTVSPropertyOp32
 70
     1
  0
XRECORD
  5
52C
102
{ACAD_REACTORS
330
52B
102
}
330
52B
100
AcDbXrecord
280
     1
102
RTVSPropertyOp0
 70
     1
102
RTVSPropertyOp1
 70
     1
102
RTVSPropertyOp2
 70
     1
102
RTVSPropertyOp3
 70
     1
102
RTVSPropertyOp4
 70
     1
102
RTVSPropertyOp5
 70
     1
102
RTVSPropertyOp6
 70
     1
102
RTVSPropertyOp7
 70
     1
102
RTVSPropertyOp8
 70
     1
102
RTVSPropertyOp9
 70
     1
102
RTVSPropertyOp10
 70
     1
102
RTVSPropertyOp11
 70
     1
102
RTVSPropertyOp12
 70
     1
102
RTVSPropertyOp13
 70
     1
102
RTVSPropertyOp14
 70
     1
102
RTVSPropertyOp15
 70
     1
102
RTVSPropertyOp16
 70
     1
102
RTVSPropertyOp17
 70
     1
102
RTVSPropertyOp18
 70
     1
102
RTVSPropertyOp19
 70
     1
102
RTVSPropertyOp20
 70
     1
102
RTVSPropertyOp21
 70
     1
102
RTVSPropertyOp22
 70
     1
102
RTVSPropertyOp23
 70
     1
102
RTVSPropertyOp24
 70
     1
102
RTVSPropertyOp25
 70
     1
102
RTVSPropertyOp26
 70
     1
102
RTVSPropertyOp27
 70
     1
102
RTVSPropertyOp28
 70
     1
102
RTVSPropertyOp29
 70
     1
102
RTVSPropertyOp30
 70
     1
102
RTVSPropertyOp31
 70
     1
102
RTVSPropertyOp32
 70
     1
  0
XRECORD
  5
546
102
{ACAD_REACTORS
330
545
102
}
330
545
100
AcDbXrecord
280
     1
102
RTVSPropertyOp0
 70
     0
102
RTVSPropertyOp1
 70
     0
102
RTVSPropertyOp2
 70
     0
102
RTVSPropertyOp3
 70
     0
102
RTVSPropertyOp4
 70
     0
102
RTVSPropertyOp5
 70
     0
102
RTVSPropertyOp6
 70
     0
102
RTVSPropertyOp7
 70
     0
102
RTVSPropertyOp8
 70
     0
102
RTVSPropertyOp9
 70
     0
102
RTVSPropertyOp10
 70
     0
102
RTVSPropertyOp11
 70
     0
102
RTVSPropertyOp12
 70
     0
102
RTVSPropertyOp13
 70
     0
102
RTVSPropertyOp14
 70
     2
102
RTVSPropertyOp15
 70
     0
102
RTVSPropertyOp16
 70
     0
102
RTVSPropertyOp17
 70
     0
102
RTVSPropertyOp18
 70
     0
102
RTVSPropertyOp19
 70
     0
102
RTVSPropertyOp20
 70
     0
102
RTVSPropertyOp21
 70
     0
102
RTVSPropertyOp22
 70
     0
102
RTVSPropertyOp23
 70
     0
102
RTVSPropertyOp24
 70
     0
102
RTVSPropertyOp25
 70
     0
102
RTVSPropertyOp26
 70
     0
102
RTVSPropertyOp27
 70
     0
102
RTVSPropertyOp28
 70
     1
102
RTVSPropertyOp29
 70
     1
102
RTVSPropertyOp30
 70
     1
102
RTVSPropertyOp31
 70
     1
102
RTVSPropertyOp32
 70
     1
  0
XRECORD
  5
534
102
{ACAD_REACTORS
330
533
102
}
330
533
100
AcDbXrecord
280
     1
102
RTVSPropertyOp0
 70
     1
102
RTVSPropertyOp1
 70
     1
102
RTVSPropertyOp2
 70
     1
102
RTVSPropertyOp3
 70
     1
102
RTVSPropertyOp4
 70
     1
102
RTVSPropertyOp5
 70
     1
102
RTVSPropertyOp6
 70
     1
102
RTVSPropertyOp7
 70
     1
102
RTVSPropertyOp8
 70
     1
102
RTVSPropertyOp9
 70
     1
102
RTVSPropertyOp10
 70
     1
102
RTVSPropertyOp11
 70
     1
102
RTVSPropertyOp12
 70
     1
102
RTVSPropertyOp13
 70
     1
102
RTVSPropertyOp14
 70
     1
102
RTVSPropertyOp15
 70
     1
102
RTVSPropertyOp16
 70
     1
102
RTVSPropertyOp17
 70
     1
102
RTVSPropertyOp18
 70
     1
102
RTVSPropertyOp19
 70
     1
102
RTVSPropertyOp20
 70
     1
102
RTVSPropertyOp21
 70
     1
102
RTVSPropertyOp22
 70
     1
102
RTVSPropertyOp23
 70
     1
102
RTVSPropertyOp24
 70
     1
102
RTVSPropertyOp25
 70
     1
102
RTVSPropertyOp26
 70
     1
102
RTVSPropertyOp27
 70
     1
102
RTVSPropertyOp28
 70
     1
102
RTVSPropertyOp29
 70
     1
102
RTVSPropertyOp30
 70
     1
102
RTVSPropertyOp31
 70
     1
102
RTVSPropertyOp32
 70
     1
  0
XRECORD
  5
518
102
{ACAD_REACTORS
330
517
102
}
330
517
100
AcDbXrecord
280
     1
102
RTVSPropertyOp0
 70
     1
102
RTVSPropertyOp1
 70
     1
102
RTVSPropertyOp2
 70
     1
102
RTVSPropertyOp3
 70
     1
102
RTVSPropertyOp4
 70
     1
102
RTVSPropertyOp5
 70
     1
102
RTVSPropertyOp6
 70
     1
102
RTVSPropertyOp7
 70
     1
102
RTVSPropertyOp8
 70
     1
102
RTVSPropertyOp9
 70
     1
102
RTVSPropertyOp10
 70
     1
102
RTVSPropertyOp11
 70
     1
102
RTVSPropertyOp12
 70
     1
102
RTVSPropertyOp13
 70
     1
102
RTVSPropertyOp14
 70
     1
102
RTVSPropertyOp15
 70
     1
102
RTVSPropertyOp16
 70
     1
102
RTVSPropertyOp17
 70
     1
102
RTVSPropertyOp18
 70
     1
102
RTVSPropertyOp19
 70
     1
102
RTVSPropertyOp20
 70
     1
102
RTVSPropertyOp21
 70
     1
102
RTVSPropertyOp22
 70
     1
102
RTVSPropertyOp23
 70
     1
102
RTVSPropertyOp24
 70
     1
102
RTVSPropertyOp25
 70
     1
102
RTVSPropertyOp26
 70
     1
102
RTVSPropertyOp27
 70
     1
102
RTVSPropertyOp28
 70
     1
102
RTVSPropertyOp29
 70
     1
102
RTVSPropertyOp30
 70
     1
102
RTVSPropertyOp31
 70
     1
102
RTVSPropertyOp32
 70
     1
  0
XRECORD
  5
51A
102
{ACAD_REACTORS
330
519
102
}
330
519
100
AcDbXrecord
280
     1
102
RTVSPropertyOp0
 70
     1
102
RTVSPropertyOp1
 70
     1
102
RTVSPropertyOp2
 70
     1
102
RTVSPropertyOp3
 70
     1
102
RTVSPropertyOp4
 70
     1
102
RTVSPropertyOp5
 70
     1
102
RTVSPropertyOp6
 70
     1
102
RTVSPropertyOp7
 70
     1
102
RTVSPropertyOp8
 70
     1
102
RTVSPropertyOp9
 70
     1
102
RTVSPropertyOp10
 70
     1
102
RTVSPropertyOp11
 70
     1
102
RTVSPropertyOp12
 70
     1
102
RTVSPropertyOp13
 70
     1
102
RTVSPropertyOp14
 70
     1
102
RTVSPropertyOp15
 70
     1
102
RTVSPropertyOp16
 70
     1
102
RTVSPropertyOp17
 70
     1
102
RTVSPropertyOp18
 70
     1
102
RTVSPropertyOp19
 70
     1
102
RTVSPropertyOp20
 70
     1
102
RTVSPropertyOp21
 70
     1
102
RTVSPropertyOp22
 70
     1
102
RTVSPropertyOp23
 70
     1
102
RTVSPropertyOp24
 70
     1
102
RTVSPropertyOp25
 70
     1
102
RTVSPropertyOp26
 70
     1
102
RTVSPropertyOp27
 70
     1
102
RTVSPropertyOp28
 70
     1
102
RTVSPropertyOp29
 70
     1
102
RTVSPropertyOp30
 70
     1
102
RTVSPropertyOp31
 70
     1
102
RTVSPropertyOp32
 70
     1
  0
XRECORD
  5
51C
102
{ACAD_REACTORS
330
51B
102
}
330
51B
100
AcDbXrecord
280
     1
102
RTVSPropertyOp0
 70
     1
102
RTVSPropertyOp1
 70
     1
102
RTVSPropertyOp2
 70
     1
102
RTVSPropertyOp3
 70
     1
102
RTVSPropertyOp4
 70
     1
102
RTVSPropertyOp5
 70
     1
102
RTVSPropertyOp6
 70
     1
102
RTVSPropertyOp7
 70
     1
102
RTVSPropertyOp8
 70
     1
102
RTVSPropertyOp9
 70
     1
102
RTVSPropertyOp10
 70
     1
102
RTVSPropertyOp11
 70
     1
102
RTVSPropertyOp12
 70
     1
102
RTVSPropertyOp13
 70
     1
102
RTVSPropertyOp14
 70
     1
102
RTVSPropertyOp15
 70
     1
102
RTVSPropertyOp16
 70
     1
102
RTVSPropertyOp17
 70
     1
102
RTVSPropertyOp18
 70
     1
102
RTVSPropertyOp19
 70
     1
102
RTVSPropertyOp20
 70
     1
102
RTVSPropertyOp21
 70
     1
102
RTVSPropertyOp22
 70
     1
102
RTVSPropertyOp23
 70
     1
102
RTVSPropertyOp24
 70
     1
102
RTVSPropertyOp25
 70
     1
102
RTVSPropertyOp26
 70
     1
102
RTVSPropertyOp27
 70
     1
102
RTVSPropertyOp28
 70
     1
102
RTVSPropertyOp29
 70
     1
102
RTVSPropertyOp30
 70
     1
102
RTVSPropertyOp31
 70
     1
102
RTVSPropertyOp32
 70
     1
  0
XRECORD
  5
51E
102
{ACAD_REACTORS
330
51D
102
}
330
51D
100
AcDbXrecord
280
     1
102
RTVSPropertyOp0
 70
     1
102
RTVSPropertyOp1
 70
     1
102
RTVSPropertyOp2
 70
     1
102
RTVSPropertyOp3
 70
     1
102
RTVSPropertyOp4
 70
     1
102
RTVSPropertyOp5
 70
     1
102
RTVSPropertyOp6
 70
     1
102
RTVSPropertyOp7
 70
     1
102
RTVSPropertyOp8
 70
     1
102
RTVSPropertyOp9
 70
     1
102
RTVSPropertyOp10
 70
     1
102
RTVSPropertyOp11
 70
     1
102
RTVSPropertyOp12
 70
     1
102
RTVSPropertyOp13
 70
     1
102
RTVSPropertyOp14
 70
     1
102
RTVSPropertyOp15
 70
     1
102
RTVSPropertyOp16
 70
     1
102
RTVSPropertyOp17
 70
     1
102
RTVSPropertyOp18
 70
     1
102
RTVSPropertyOp19
 70
     1
102
RTVSPropertyOp20
 70
     1
102
RTVSPropertyOp21
 70
     1
102
RTVSPropertyOp22
 70
     1
102
RTVSPropertyOp23
 70
     1
102
RTVSPropertyOp24
 70
     1
102
RTVSPropertyOp25
 70
     1
102
RTVSPropertyOp26
 70
     1
102
RTVSPropertyOp27
 70
     1
102
RTVSPropertyOp28
 70
     1
102
RTVSPropertyOp29
 70
     1
102
RTVSPropertyOp30
 70
     1
102
RTVSPropertyOp31
 70
     1
102
RTVSPropertyOp32
 70
     1
  0
XRECORD
  5
526
102
{ACAD_REACTORS
330
525
102
}
330
525
100
AcDbXrecord
280
     1
102
RTVSPropertyOp0
 70
     1
102
RTVSPropertyOp1
 70
     1
102
RTVSPropertyOp2
 70
     1
102
RTVSPropertyOp3
 70
     1
102
RTVSPropertyOp4
 70
     1
102
RTVSPropertyOp5
 70
     1
102
RTVSPropertyOp6
 70
     1
102
RTVSPropertyOp7
 70
     1
102
RTVSPropertyOp8
 70
     1
102
RTVSPropertyOp9
 70
     1
102
RTVSPropertyOp10
 70
     1
102
RTVSPropertyOp11
 70
     1
102
RTVSPropertyOp12
 70
     1
102
RTVSPropertyOp13
 70
     1
102
RTVSPropertyOp14
 70
     1
102
RTVSPropertyOp15
 70
     1
102
RTVSPropertyOp16
 70
     1
102
RTVSPropertyOp17
 70
     1
102
RTVSPropertyOp18
 70
     1
102
RTVSPropertyOp19
 70
     1
102
RTVSPropertyOp20
 70
     1
102
RTVSPropertyOp21
 70
     1
102
RTVSPropertyOp22
 70
     1
102
RTVSPropertyOp23
 70
     1
102
RTVSPropertyOp24
 70
     1
102
RTVSPropertyOp25
 70
     1
102
RTVSPropertyOp26
 70
     1
102
RTVSPropertyOp27
 70
     1
102
RTVSPropertyOp28
 70
     1
102
RTVSPropertyOp29
 70
     1
102
RTVSPropertyOp30
 70
     1
102
RTVSPropertyOp31
 70
     1
102
RTVSPropertyOp32
 70
     1
  0
XRECORD
  5
542
102
{ACAD_REACTORS
330
541
102
}
330
541
100
AcDbXrecord
280
     1
102
RTVSPropertyOp0
 70
     0
102
RTVSPropertyOp1
 70
     0
102
RTVSPropertyOp2
 70
     0
102
RTVSPropertyOp3
 70
     0
102
RTVSPropertyOp4
 70
     0
102
RTVSPropertyOp5
 70
     0
102
RTVSPropertyOp6
 70
     0
102
RTVSPropertyOp7
 70
     0
102
RTVSPropertyOp8
 70
     0
102
RTVSPropertyOp9
 70
     0
102
RTVSPropertyOp10
 70
     0
102
RTVSPropertyOp11
 70
     0
102
RTVSPropertyOp12
 70
     0
102
RTVSPropertyOp13
 70
     0
102
RTVSPropertyOp14
 70
     2
102
RTVSPropertyOp15
 70
     0
102
RTVSPropertyOp16
 70
     0
102
RTVSPropertyOp17
 70
     0
102
RTVSPropertyOp18
 70
     0
102
RTVSPropertyOp19
 70
     0
102
RTVSPropertyOp20
 70
     0
102
RTVSPropertyOp21
 70
     0
102
RTVSPropertyOp22
 70
     0
102
RTVSPropertyOp23
 70
     0
102
RTVSPropertyOp24
 70
     0
102
RTVSPropertyOp25
 70
     0
102
RTVSPropertyOp26
 70
     0
102
RTVSPropertyOp27
 70
     0
102
RTVSPropertyOp28
 70
     1
102
RTVSPropertyOp29
 70
     1
102
RTVSPropertyOp30
 70
     1
102
RTVSPropertyOp31
 70
     1
102
RTVSPropertyOp32
 70
     1
  0
XRECORD
  5
532
102
{ACAD_REACTORS
330
531
102
}
330
531
100
AcDbXrecord
280
     1
102
RTVSPropertyOp0
 70
     1
102
RTVSPropertyOp1
 70
     1
102
RTVSPropertyOp2
 70
     1
102
RTVSPropertyOp3
 70
     1
102
RTVSPropertyOp4
 70
     1
102
RTVSPropertyOp5
 70
     1
102
RTVSPropertyOp6
 70
     1
102
RTVSPropertyOp7
 70
     1
102
RTVSPropertyOp8
 70
     1
102
RTVSPropertyOp9
 70
     1
102
RTVSPropertyOp10
 70
     1
102
RTVSPropertyOp11
 70
     1
102
RTVSPropertyOp12
 70
     1
102
RTVSPropertyOp13
 70
     1
102
RTVSPropertyOp14
 70
     1
102
RTVSPropertyOp15
 70
     1
102
RTVSPropertyOp16
 70
     1
102
RTVSPropertyOp17
 70
     1
102
RTVSPropertyOp18
 70
     1
102
RTVSPropertyOp19
 70
     1
102
RTVSPropertyOp20
 70
     1
102
RTVSPropertyOp21
 70
     1
102
RTVSPropertyOp22
 70
     1
102
RTVSPropertyOp23
 70
     1
102
RTVSPropertyOp24
 70
     1
102
RTVSPropertyOp25
 70
     1
102
RTVSPropertyOp26
 70
     1
102
RTVSPropertyOp27
 70
     1
102
RTVSPropertyOp28
 70
     1
102
RTVSPropertyOp29
 70
     1
102
RTVSPropertyOp30
 70
     1
102
RTVSPropertyOp31
 70
     1
102
RTVSPropertyOp32
 70
     1
  0
XRECORD
  5
544
102
{ACAD_REACTORS
330
543
102
}
330
543
100
AcDbXrecord
280
     1
102
RTVSPropertyOp0
 70
     0
102
RTVSPropertyOp1
 70
     0
102
RTVSPropertyOp2
 70
     0
102
RTVSPropertyOp3
 70
     0
102
RTVSPropertyOp4
 70
     0
102
RTVSPropertyOp5
 70
     0
102
RTVSPropertyOp6
 70
     0
102
RTVSPropertyOp7
 70
     0
102
RTVSPropertyOp8
 70
     0
102
RTVSPropertyOp9
 70
     0
102
RTVSPropertyOp10
 70
     0
102
RTVSPropertyOp11
 70
     0
102
RTVSPropertyOp12
 70
     0
102
RTVSPropertyOp13
 70
     0
102
RTVSPropertyOp14
 70
     2
102
RTVSPropertyOp15
 70
     0
102
RTVSPropertyOp16
 70
     0
102
RTVSPropertyOp17
 70
     0
102
RTVSPropertyOp18
 70
     0
102
RTVSPropertyOp19
 70
     0
102
RTVSPropertyOp20
 70
     0
102
RTVSPropertyOp21
 70
     0
102
RTVSPropertyOp22
 70
     0
102
RTVSPropertyOp23
 70
     0
102
RTVSPropertyOp24
 70
     0
102
RTVSPropertyOp25
 70
     0
102
RTVSPropertyOp26
 70
     0
102
RTVSPropertyOp27
 70
     0
102
RTVSPropertyOp28
 70
     1
102
RTVSPropertyOp29
 70
     1
102
RTVSPropertyOp30
 70
     1
102
RTVSPropertyOp31
 70
     1
102
RTVSPropertyOp32
 70
     1
  0
XRECORD
  5
52A
102
{ACAD_REACTORS
330
529
102
}
330
529
100
AcDbXrecord
280
     1
102
RTVSPropertyOp0
 70
     1
102
RTVSPropertyOp1
 70
     1
102
RTVSPropertyOp2
 70
     1
102
RTVSPropertyOp3
 70
     1
102
RTVSPropertyOp4
 70
     1
102
RTVSPropertyOp5
 70
     1
102
RTVSPropertyOp6
 70
     1
102
RTVSPropertyOp7
 70
     1
102
RTVSPropertyOp8
 70
     1
102
RTVSPropertyOp9
 70
     1
102
RTVSPropertyOp10
 70
     1
102
RTVSPropertyOp11
 70
     1
102
RTVSPropertyOp12
 70
     1
102
RTVSPropertyOp13
 70
     1
102
RTVSPropertyOp14
 70
     1
102
RTVSPropertyOp15
 70
     1
102
RTVSPropertyOp16
 70
     1
102
RTVSPropertyOp17
 70
     1
102
RTVSPropertyOp18
 70
     1
102
RTVSPropertyOp19
 70
     1
102
RTVSPropertyOp20
 70
     1
102
RTVSPropertyOp21
 70
     1
102
RTVSPropertyOp22
 70
     1
102
RTVSPropertyOp23
 70
     1
102
RTVSPropertyOp24
 70
     1
102
RTVSPropertyOp25
 70
     1
102
RTVSPropertyOp26
 70
     1
102
RTVSPropertyOp27
 70
     1
102
RTVSPropertyOp28
 70
     1
102
RTVSPropertyOp29
 70
     1
102
RTVSPropertyOp30
 70
     1
102
RTVSPropertyOp31
 70
     1
102
RTVSPropertyOp32
 70
     1
  0
XRECORD
  5
540
102
{ACAD_REACTORS
330
53F
102
}
330
53F
100
AcDbXrecord
280
     1
102
RTVSPropertyOp0
 70
     1
102
RTVSPropertyOp1
 70
     1
102
RTVSPropertyOp2
 70
     1
102
RTVSPropertyOp3
 70
     1
102
RTVSPropertyOp4
 70
     1
102
RTVSPropertyOp5
 70
     1
102
RTVSPropertyOp6
 70
     1
102
RTVSPropertyOp7
 70
     1
102
RTVSPropertyOp8
 70
     1
102
RTVSPropertyOp9
 70
     1
102
RTVSPropertyOp10
 70
     1
102
RTVSPropertyOp11
 70
     1
102
RTVSPropertyOp12
 70
     1
102
RTVSPropertyOp13
 70
     1
102
RTVSPropertyOp14
 70
     1
102
RTVSPropertyOp15
 70
     1
102
RTVSPropertyOp16
 70
     1
102
RTVSPropertyOp17
 70
     1
102
RTVSPropertyOp18
 70
     1
102
RTVSPropertyOp19
 70
     1
102
RTVSPropertyOp20
 70
     1
102
RTVSPropertyOp21
 70
     1
102
RTVSPropertyOp22
 70
     1
102
RTVSPropertyOp23
 70
     1
102
RTVSPropertyOp24
 70
     1
102
RTVSPropertyOp25
 70
     1
102
RTVSPropertyOp26
 70
     1
102
RTVSPropertyOp27
 70
     1
102
RTVSPropertyOp28
 70
     1
102
RTVSPropertyOp29
 70
     1
102
RTVSPropertyOp30
 70
     1
102
RTVSPropertyOp31
 70
     1
102
RTVSPropertyOp32
 70
     1
  0
XRECORD
  5
53E
102
{ACAD_REACTORS
330
53D
102
}
330
53D
100
AcDbXrecord
280
     1
102
RTVSPropertyOp0
 70
     1
102
RTVSPropertyOp1
 70
     1
102
RTVSPropertyOp2
 70
     1
102
RTVSPropertyOp3
 70
     1
102
RTVSPropertyOp4
 70
     1
102
RTVSPropertyOp5
 70
     1
102
RTVSPropertyOp6
 70
     1
102
RTVSPropertyOp7
 70
     1
102
RTVSPropertyOp8
 70
     1
102
RTVSPropertyOp9
 70
     1
102
RTVSPropertyOp10
 70
     1
102
RTVSPropertyOp11
 70
     1
102
RTVSPropertyOp12
 70
     1
102
RTVSPropertyOp13
 70
     1
102
RTVSPropertyOp14
 70
     1
102
RTVSPropertyOp15
 70
     1
102
RTVSPropertyOp16
 70
     1
102
RTVSPropertyOp17
 70
     1
102
RTVSPropertyOp18
 70
     1
102
RTVSPropertyOp19
 70
     1
102
RTVSPropertyOp20
 70
     1
102
RTVSPropertyOp21
 70
     1
102
RTVSPropertyOp22
 70
     1
102
RTVSPropertyOp23
 70
     1
102
RTVSPropertyOp24
 70
     1
102
RTVSPropertyOp25
 70
     1
102
RTVSPropertyOp26
 70
     1
102
RTVSPropertyOp27
 70
     1
102
RTVSPropertyOp28
 70
     1
102
RTVSPropertyOp29
 70
     1
102
RTVSPropertyOp30
 70
     1
102
RTVSPropertyOp31
 70
     1
102
RTVSPropertyOp32
 70
     1
  0
XRECORD
  5
538
102
{ACAD_REACTORS
330
537
102
}
330
537
100
AcDbXrecord
280
     1
102
RTVSPropertyOp0
 70
     1
102
RTVSPropertyOp1
 70
     1
102
RTVSPropertyOp2
 70
     1
102
RTVSPropertyOp3
 70
     1
102
RTVSPropertyOp4
 70
     1
102
RTVSPropertyOp5
 70
     1
102
RTVSPropertyOp6
 70
     1
102
RTVSPropertyOp7
 70
     1
102
RTVSPropertyOp8
 70
     1
102
RTVSPropertyOp9
 70
     1
102
RTVSPropertyOp10
 70
     1
102
RTVSPropertyOp11
 70
     1
102
RTVSPropertyOp12
 70
     1
102
RTVSPropertyOp13
 70
     1
102
RTVSPropertyOp14
 70
     1
102
RTVSPropertyOp15
 70
     1
102
RTVSPropertyOp16
 70
     1
102
RTVSPropertyOp17
 70
     1
102
RTVSPropertyOp18
 70
     1
102
RTVSPropertyOp19
 70
     1
102
RTVSPropertyOp20
 70
     1
102
RTVSPropertyOp21
 70
     1
102
RTVSPropertyOp22
 70
     1
102
RTVSPropertyOp23
 70
     1
102
RTVSPropertyOp24
 70
     1
102
RTVSPropertyOp25
 70
     1
102
RTVSPropertyOp26
 70
     1
102
RTVSPropertyOp27
 70
     1
102
RTVSPropertyOp28
 70
     1
102
RTVSPropertyOp29
 70
     1
102
RTVSPropertyOp30
 70
     1
102
RTVSPropertyOp31
 70
     1
102
RTVSPropertyOp32
 70
     1
  0
XRECORD
  5
53A
102
{ACAD_REACTORS
330
539
102
}
330
539
100
AcDbXrecord
280
     1
102
RTVSPropertyOp0
 70
     1
102
RTVSPropertyOp1
 70
     1
102
RTVSPropertyOp2
 70
     1
102
RTVSPropertyOp3
 70
     1
102
RTVSPropertyOp4
 70
     1
102
RTVSPropertyOp5
 70
     1
102
RTVSPropertyOp6
 70
     1
102
RTVSPropertyOp7
 70
     1
102
RTVSPropertyOp8
 70
     1
102
RTVSPropertyOp9
 70
     1
102
RTVSPropertyOp10
 70
     1
102
RTVSPropertyOp11
 70
     1
102
RTVSPropertyOp12
 70
     1
102
RTVSPropertyOp13
 70
     1
102
RTVSPropertyOp14
 70
     1
102
RTVSPropertyOp15
 70
     1
102
RTVSPropertyOp16
 70
     1
102
RTVSPropertyOp17
 70
     1
102
RTVSPropertyOp18
 70
     1
102
RTVSPropertyOp19
 70
     1
102
RTVSPropertyOp20
 70
     1
102
RTVSPropertyOp21
 70
     1
102
RTVSPropertyOp22
 70
     1
102
RTVSPropertyOp23
 70
     1
102
RTVSPropertyOp24
 70
     1
102
RTVSPropertyOp25
 70
     1
102
RTVSPropertyOp26
 70
     1
102
RTVSPropertyOp27
 70
     1
102
RTVSPropertyOp28
 70
     1
102
RTVSPropertyOp29
 70
     1
102
RTVSPropertyOp30
 70
     1
102
RTVSPropertyOp31
 70
     1
102
RTVSPropertyOp32
 70
     1
  0
XRECORD
  5
530
102
{ACAD_REACTORS
330
52F
102
}
330
52F
100
AcDbXrecord
280
     1
102
RTVSPropertyOp0
 70
     1
102
RTVSPropertyOp1
 70
     1
102
RTVSPropertyOp2
 70
     1
102
RTVSPropertyOp3
 70
     1
102
RTVSPropertyOp4
 70
     1
102
RTVSPropertyOp5
 70
     1
102
RTVSPropertyOp6
 70
     1
102
RTVSPropertyOp7
 70
     1
102
RTVSPropertyOp8
 70
     1
102
RTVSPropertyOp9
 70
     1
102
RTVSPropertyOp10
 70
     1
102
RTVSPropertyOp11
 70
     1
102
RTVSPropertyOp12
 70
     1
102
RTVSPropertyOp13
 70
     1
102
RTVSPropertyOp14
 70
     1
102
RTVSPropertyOp15
 70
     1
102
RTVSPropertyOp16
 70
     1
102
RTVSPropertyOp17
 70
     1
102
RTVSPropertyOp18
 70
     1
102
RTVSPropertyOp19
 70
     1
102
RTVSPropertyOp20
 70
     1
102
RTVSPropertyOp21
 70
     1
102
RTVSPropertyOp22
 70
     1
102
RTVSPropertyOp23
 70
     1
102
RTVSPropertyOp24
 70
     1
102
RTVSPropertyOp25
 70
     1
102
RTVSPropertyOp26
 70
     1
102
RTVSPropertyOp27
 70
     1
102
RTVSPropertyOp28
 70
     1
102
RTVSPropertyOp29
 70
     1
102
RTVSPropertyOp30
 70
     1
102
RTVSPropertyOp31
 70
     1
102
RTVSPropertyOp32
 70
     1
  0
XRECORD
  5
524
102
{ACAD_REACTORS
330
523
102
}
330
523
100
AcDbXrecord
280
     1
102
RTVSPropertyOp0
 70
     1
102
RTVSPropertyOp1
 70
     1
102
RTVSPropertyOp2
 70
     1
102
RTVSPropertyOp3
 70
     1
102
RTVSPropertyOp4
 70
     1
102
RTVSPropertyOp5
 70
     1
102
RTVSPropertyOp6
 70
     1
102
RTVSPropertyOp7
 70
     1
102
RTVSPropertyOp8
 70
     1
102
RTVSPropertyOp9
 70
     1
102
RTVSPropertyOp10
 70
     1
102
RTVSPropertyOp11
 70
     1
102
RTVSPropertyOp12
 70
     1
102
RTVSPropertyOp13
 70
     1
102
RTVSPropertyOp14
 70
     1
102
RTVSPropertyOp15
 70
     1
102
RTVSPropertyOp16
 70
     1
102
RTVSPropertyOp17
 70
     1
102
RTVSPropertyOp18
 70
     1
102
RTVSPropertyOp19
 70
     1
102
RTVSPropertyOp20
 70
     1
102
RTVSPropertyOp21
 70
     1
102
RTVSPropertyOp22
 70
     1
102
RTVSPropertyOp23
 70
     1
102
RTVSPropertyOp24
 70
     1
102
RTVSPropertyOp25
 70
     1
102
RTVSPropertyOp26
 70
     1
102
RTVSPropertyOp27
 70
     1
102
RTVSPropertyOp28
 70
     1
102
RTVSPropertyOp29
 70
     1
102
RTVSPropertyOp30
 70
     1
102
RTVSPropertyOp31
 70
     1
102
RTVSPropertyOp32
 70
     1
  0
XRECORD
  5
53C
102
{ACAD_REACTORS
330
53B
102
}
330
53B
100
AcDbXrecord
280
     1
102
RTVSPropertyOp0
 70
     1
102
RTVSPropertyOp1
 70
     1
102
RTVSPropertyOp2
 70
     1
102
RTVSPropertyOp3
 70
     1
102
RTVSPropertyOp4
 70
     1
102
RTVSPropertyOp5
 70
     1
102
RTVSPropertyOp6
 70
     1
102
RTVSPropertyOp7
 70
     1
102
RTVSPropertyOp8
 70
     1
102
RTVSPropertyOp9
 70
     1
102
RTVSPropertyOp10
 70
     1
102
RTVSPropertyOp11
 70
     1
102
RTVSPropertyOp12
 70
     1
102
RTVSPropertyOp13
 70
     1
102
RTVSPropertyOp14
 70
     1
102
RTVSPropertyOp15
 70
     1
102
RTVSPropertyOp16
 70
     1
102
RTVSPropertyOp17
 70
     1
102
RTVSPropertyOp18
 70
     1
102
RTVSPropertyOp19
 70
     1
102
RTVSPropertyOp20
 70
     1
102
RTVSPropertyOp21
 70
     1
102
RTVSPropertyOp22
 70
     1
102
RTVSPropertyOp23
 70
     1
102
RTVSPropertyOp24
 70
     1
102
RTVSPropertyOp25
 70
     1
102
RTVSPropertyOp26
 70
     1
102
RTVSPropertyOp27
 70
     1
102
RTVSPropertyOp28
 70
     1
102
RTVSPropertyOp29
 70
     1
102
RTVSPropertyOp30
 70
     1
102
RTVSPropertyOp31
 70
     1
102
RTVSPropertyOp32
 70
     1
  0
ENDSEC
  0
EOF
